Oops, an error
Loading. Please wait.

Down Goes Another One bass

version 1
version 1

Whole song

by McFly
2,508 views 1 this week
no commentswrite comment
1 2 3 4 5
2 more votes to show rating
add to favorites
×
Save as Personal and add changes to this tab that will be seen only by you. Learn more ›
×
You can save this tab as Personal to edit and correct it or add notes. All changes will be seen only by you. Learn more »
launch autoscroll
font size
0
reset
guitar tuner
edit
Autoscroll
slow
fast
+/-
esc
set tempo
stop
Author
Song - Down Goes Another One
Album - Radio:ACTIVE
Artist - McFly
Bassist - Dougie Poynter
Tabbed by - MrsMikeyWay
Email - jenmck26@msn.com
Tuning - Standard

NOTE - In the verse's and bridge a - means an eighth beat reast. kind of thing.

OK This is my first tab so any comments telling me how to fix it would be helpful. 
it's probably all wrong.. lol

This is my fave song off of the album and when I saw no one had tabbed it, i thought id 
it a go myself. :)

Plus I Love Dougie :P


No Bass In Verse 1 [There's no proper intro]

Bridge (0:31)
G|---------------------------|
D|---------------------------|
A|---------------------------|
E|-1----3----5--------1----0-|

Chorus (0:42) [Listen to get the rhythm]
G|----------------------|
D|----------------------|
A|----------------------|
E|-1-1--3-3--5-5-33-5-5-| x3

(1:04)
G|--------|
D|--------|
A|--------|
E|-1----0-|

Pre-Verse (1:07)
G|----------------------------|
D|----------------------------|
A|----------------3--5--------|
E|-1----3----5----------1---3-|

Verse 2 (1:18)
G|------------------|
D|------------------|
A|------3---------5-|
E|-5---------3------| x 3

Bridge (1:48)
G|-------------------------------------------|
D|-------------------------------------------|
A|-------------------------------------------|
E|-1-1-1-1-3-3-3-3-5-5-5-5-5-5-5-5-1-1-1-1-0-|

Chorus 2 (1:59)
G|----------------------|
D|----------------------|
A|----------------------|
E|-1-1--3-3--5-5-33-5-5-| x3

(2:21)
G|--------|
D|--------|
A|--------|
E|-1----0-|

Breakdown (2:30 first time) (2:37 second time)
G|------|
D|------|
A|-3--5-|
E|------|

Solo (2:39)
G|-----------------------------------------------------------------------|
D|-----------------------------------------------------------------------|
A|-----------------------------------------------------------------------|
E|-11111111-33333333-5555555555555555-11111111-33333333-0000000000000000-|

Bridge (2:53)
G|-------------------------------------------|
D|-------------------------------------------|
A|-------------------------------------------|
E|-1-1-1-1-3-3-3-3-5-5-5-5-5-5-5-5-1-1-1-1-0-|

Chorus 3 (3:06)
G|----------------------|
D|----------------------|
A|----------------------|
E|-1-1--3-3--5-5-33-5-5-| x3

(3:28)
G|--------|
D|--------|
A|--------|
E|-1----0-|

Outro (3:32)
G|---------------------|
D|---------------------|
A|----------------3--5-|
E|-1----3----5---------|x3

(3:57)
G|----|
D|----|
A|----|
E|-3~-|

Enjoy! :)

            
            
Suggest correction
Creating personal tab
Creating personal tab
You can edit any tab online and save it as your Personal.

You can edit, replace or remove any tab part or add personal notes – all changes will be seen only by you.

Personal tabs can be accessed anytime from any device, even offline.
Learn more »
Give kudos to tab author, rate the tab!
1 2 3 4 5
comments
print report bad tab
guest
You may want to rate the tab now too:
select rating
Wanna post a correction for this tab? Suggest correction