Oops, an error
Loading. Please wait.

Easy Way Out tab

by McFly
3,847 views 1 this week
1 commentread comment
1 2 3 4 5
x 9
add to favorites
×
Save as Personal and add changes to this tab that will be seen only by you. Learn more ›
×
You can save this tab as Personal to edit and correct it or add notes. All changes will be seen only by you. Learn more »
launch autoscroll
font size
0
reset
how to read this tab
guitar tuner
edit
Autoscroll
slow
fast
+/-
esc
set tempo
stop
McFly
Easy Way Out
Tuning: (EADGBE) Standard Tuning
Transcribed by Soch H.

Intro: G  Em7  D 
       G  Em7  D
       G  Em7  D  G    D

Riff 1:
|------------------------------------------------------|
|----------8-10-10b12r-8-10-8~-------------------------|
|------7s9------------------------7s9-7----------------|
|---------------------------------------9s7-5-7-5~-----|
|------------------------------------------------------|
|------------------------------------------------------|

|------------------------------------------------------|
|----------8-10-10b12-10-8\----------------------------|
|------7s9---------------------------------------------|
|------------------------------------------------------|
|------------------------------------------------------|
|------------------------------------------------------|

Verse:
G
Been having doubts now for a week or two
Em7
She doesn’t love him like she used to do
C
He's had his chance but he’s fallen through
              G    D
He wants her back with him tonight

Verse 2:
G
She felt the fire burn out long ago
Em7
She didn’t tell him so he’ll never know
Bm                              D
She turns away as he calls her name

Chorus:
                 Em
She don’t wanna know (don’t say that you love her)
                   A7
You should let her go (don’t say that you want her)
               Cm                                           D
And leave her alone cause this time she’s leaving you for good
                 Em
She don’t wanna know (don’t say that you need her)
                  A7
You’re a little slow (there’s no easy way out)
      Cm                           G
It’s time to face the facts she’s gone

Em7  D  G  Em7  D  G  Em7  D  G   D

Verse 3:
G
She takes a photo and she cuts him out
Em7
So much for memories they will bring her down
Bm                                D
She sheds a tear as he calls her name

Chorus:
                 Em
She don’t wanna know (don’t say that you love her)
                   A7
You should let her go (don’t say that you want her)
               Cm                                          D
And leave her alone cause this time she’s leaving you for good
                 Em
She don’t wanna know (don’t say that you need her)
                 A7
You’re a little slow (there’s no easy way out)
      Cm                            G   Em7  D
It’s time to face the facts she’s gone

Bridge:
Am             F            G
Her mind is flooded with emotion

|-7------------------|
|----8--------10~----|
|-------7--9---------|
|--------------------|
|--------------------|
|--------------------|

Am           F                 G
This isn’t where she wants to be

|-8--7---------------|
|-------8~-----------|
|--------------------|
|--------------------|
|--------------------|
|--------------------|

               Em                  C         G        A
Lying in the ocean trying to wash away unwanted memories

Riff 2:                                   (natural harmonic)
|---------------------5--7--5-------------------<12>---|
|-2--3--5-5--7--8-8---5--7--5--------------------------|
|-2--4--6-6--7--7-7------------------------------------|
|------------------------------------------------------|
|------------------------------------------------------|
|------------------------------------------------------|

Chorus: (Palm Muted)
|-----------------------------------------------|
|-----------------------------------------------|
|-----------------------5--------7--------------|
|-----2--------7--------5--------7--------------|
|-----2--------7--------3-(x16)--5-(x9)---------|
|-----0-(x16)--5-(x16)--------------------------|
  PM|--------------------------|

Chorus:
                 Em
She don’t wanna know (don’t say that you love her)
                   A7
You should let her go (don’t say that you want her)
               Cm                                           D
And leave her alone cause this time she’s leaving you for good
                 Em
She don’t wanna know (don’t say that you need her)
                  A7
You’re a little slow (there’s no easy way out)
      Cm                           G
It’s time to face the facts she’s gone

Em7  D  G  Em7  D  G  Em7  D  G

Chords:
G:   320033
Em7: 022033
D:   xx0232
C:   x32010
Bm:  x24432
A7:  x02020
Cm:  x35543
Am:  x02210
F:   133211
Em:  022000

Legend:
PM - palm mute

            
            
Suggest correction
Creating personal tab
Creating personal tab
You can edit any tab online and save it as your Personal.

You can edit, replace or remove any tab part or add personal notes – all changes will be seen only by you.

Personal tabs can be accessed anytime from any device, even offline.
Learn more »
comments
print report bad tab
1 comment total.
0 reply
smyth75 103 Jun 07, 2006 10:39 AM

this tab is very gud mate

guest
You may want to rate the tab now too:
select rating
Wanna post a correction for this tab? Suggest correction