Oops, an error
Loading. Please wait.

Falling In Love bass

version 1
version 1

Whole song

Interactive

by McFly
10,715 views 1 this week
1 commentread comment
1 2 3 4 5
x 5
add to favorites
×
Save as Personal and add changes to this tab that will be seen only by you. Learn more ›
×
You can save this tab as Personal to edit and correct it or add notes. All changes will be seen only by you. Learn more »
launch autoscroll
font size
0
reset
guitar tuner
edit
Autoscroll
slow
fast
+/-
esc
set tempo
stop
Author
__________________________
¯¯¯¯¯¯¯¯¯¯¯¯¯¯¯¯¯¯¯¯¯¯¯¯¯¯
Heyy,
After a long wait, here it is, the "Falling In Love"
tab ! I'm really really sorry for the wait. But, during
the next 2 weeks, i'll not go to school [HOLIDAYYYYS !]
So i'll be able to tab much more songs ! I promise you at
least one or two tabs during the next two weeks !

So I hope you'll enjoy this one !

*

Falling In Love
Artist : MCFLY
Album : Radio:ACTIVE, 2008

Tuning : Standard (EADG)
Tabbed By : Karine Bélanger (Aka. KwiiK)
email : kbine_01@hotmail.com
__________________________
¯¯¯¯¯¯¯¯¯¯¯¯¯¯¯¯¯¯¯¯¯¯¯¯¯¯

/ : Slide up
\ : Slide down
h : Hammer on
p : Pull off


Intro [0:07]

G|-------------------------------------|
D|-------------------------------------|
A|-------------------------------------|
E|-15/66666666666666666666666666668888-|

G|-------------------------------------|
D|-------------------------------------|
A|-------------------------------------|
E|-33333333333333313333333333335555----|

Verse [0:24]

G|-------------------------------------|
D|-------------------------------------|
A|-------------------------------------|
E|-666666666666666666666666666668888---|

G|-------------------------------------|
D|-------------------------------------|
A|-------------------------------------|
E|-33333333333333333333333333333333----|

G|-------------------------------------|
D|-------------------------------------|
A|-66666666666666666666666666666666----|
E|-------------------------------------|

G|-------------------------------------|
D|----------------10-8-----------------|
A|--------------------8----------------|
E|-666666666666668-----6666666666/15\6-|


Chorus [0:57]

G|-------------------------------------|
D|-------------------------------------|
A|-66666666----------------------------|
E|---------111111113333333333333333----|

G|-------------------------------------|
D|-------------------------------------|
A|-6666666666666666888888888888888-----|
E|-------------------------------------|

G|-------------------------------------|
D|-------------------------------------|
A|-------------------------------------|
E|-66666666666666666666666666668888----|


Verse [1:21]

G|-------------------------------------|
D|-------------------------------------|
A|-------------------------------------|
E|-666666666666666666666666666668888---|

G|-------------------------------------|
D|-------------------------------------|
A|-------------------------------------|
E|-33333333333333333333333333333333----|

G|-------------------------------------|
D|-------------------------------------|
A|-66666666666666666666666666666666----|
E|-------------------------------------|

G|-------------------------------------|
D|----------------10-8-----------------|
A|--------------------8----------------|
E|-666666666666668-----6666666666/15\6-|


Chorus [1:54]

G|-------------------------------------|
D|-------------------------------------|
A|-66666666----------------------------|
E|---------111111113333333333333333----|

G|-------------------------------------|
D|-------------------------------------|
A|-6666666666666666--------------------|
E|-----------------1111111111111111----|

G|-------------------------------------|
D|-------------------------------------|
A|-------------------------------------|
E|-66666666666666666666666666668888----|

G|-------------------------------------|
D|-------------------------------------|
A|-------------------------------------|
E|-33333333333333313333333333335555----|


Solo [2:26]

G|-------------------------------------|
D|-------------------------------------|
A|-66666666----------------------------|
E|---------111111113333333355577799----| [here, listen carefully, it's complex to get]

G|-------------------------------------|
D|-------------------------------------|
A|-66666666------------------3---------|
E|---------111111113333333335-53101----|

G|-------------------------------------|
D|-------------------------------------|
A|-666666666666666688888888------------|
E|-------------------------11111111----|


Silence [2:51]
Then, the bass begin at 3:15

G|-------------------------------------|
D|-------------------------------------|
A|-6666666666666666--------------------|
E|-----------------6666666666666666----|

G|-------------------------------------|
D|-------------------------------------|
A|-6666666666666666--------------------|
E|-----------------6666666633333363----|

G|-------------------------------------|
D|-------------------------------------|
A|-6666666666666666--------------------|
E|-----------------6666666666666666----|

G|-------------------------------------|
D|-------------------------------------|
A|-6666666666666666--------------------|
E|-----------------6666666633333363----|

G|-------------------------------------|
D|-------------------------------------|
A|-6666666666666666--------------------|
E|-----------------6666666666666666----|

FINAL NOTE :D

G|-----|
D|-----|
A|--6--|
E|-----|


I hope this tab is okay ! If you notice any
mistake, just say it to me, i'll be happy to
correct the tabs to help everyone :D

Cheers ! 

            
            
Suggest correction
Creating personal tab
Creating personal tab
You can edit any tab online and save it as your Personal.

You can edit, replace or remove any tab part or add personal notes – all changes will be seen only by you.

Personal tabs can be accessed anytime from any device, even offline.
Learn more »
comments
print report bad tab
1 comment total.
0 reply
CharGuitarGirl 41 Aug 28, 2009 04:26 AM

on the solo, it sounds better if you go up 66 88 1010

instead of 55 77 99

other than that 5* =]

guest
You may want to rate the tab now too:
select rating
Wanna post a correction for this tab? Suggest correction