Oops, an error
Loading. Please wait.

Falling In Love tab

version 1
version 1

Whole song

Interactive

by McFly
31,535 views 12 this week
no commentswrite comment
1 2 3 4 5
x 7
add to favorites
×
Save as Personal and add changes to this tab that will be seen only by you. Learn more ›
×
You can save this tab as Personal to edit and correct it or add notes. All changes will be seen only by you. Learn more »
launch autoscroll
font size
0
reset
how to read this tab
guitar tuner
edit
Autoscroll
slow
fast
+/-
esc
set tempo
stop
Author
Hi, this is my first tab, so I hope it's okay. This is what I personally think 
sounds right. Enjoy!
Hannah x

Tuning : EBGDAE (Standard)

Danny is playing acoustic guitar, capo fret 1. (Guitar 1)
Tom is playing electric guitar, no capo.  (Guitar 2)

(Guitar 1)

e|-0--0-0-0-0-0-00-------------|
B|-3--3-0-3-4-3-00-------------|
G|-3--3-3-3-3-3-33-------------|
D|-3--3-3-3-3-3-30-------------|             (x2)
A|-0--0-0-0-0-0-00-------------|
E|-0--0-0-0-0-0-00-------------|
                 *
Strum all of the chords, but pick this one quickly to get it right. If you're not that 
just play the A chord again.

Then just strum F#m.


Tom plays this when the drums and bass come in :        (Guitar 2)

e|----------------------------------------------------------------|
B|-3-1-3-4-3-1-3---3-1-3-4-3-1-3---3-1-3-4-3-1-3---3-1-3-4-3-1-3--|
G|---------------3---------------0---------------0---------------3|
D|----------------------------------------------------------------|
A|----------------------------------------------------------------|
E|----------------------------------------------------------------|


Both guitars play this when it says Riff 1.


(Guitar 1)

VERSE 1:

  A
  Every day feels like a Monday

  There is no escaping from the heartache
             F#m
  Now I wanna put it back together

  Coz it's always better late than never
                  D
  Wishing I could be in California

(Guitar 2)
Pick the strings and mess around with these chords :
D   Dsus2   Dsus4


  I wanna tell you when I call ya
                  A
  I could've fallen in love

(Guitar 2)

E|---------------------------|
B|---------------------------|
G|---------------------------|
D|---------------------------|
A|-5-7-5-7---7-5-3-5-7-5-3---|
E|---------------------------|


  I wish I'd fallen in love

PRE-CHORUS:

  D               E           F#m
  Out of our minds and out of time
                          D
  Wishing I could be with you
               E
  To share the view

CHORUS:

  E                       A
  We could have fallen in love

(Riff 1)

  Woah oh woah oh oh (x2)


VERSE 2:


  A
  Waking up to people talking

  And it's getting later every morning
            F#m
  And I realise it's nearly midday

  And I've waisted half my life to throw it away
              D
  Saying everyday should be a new day


(Guitar 2)
Pick the strings and mess around with these chords :
D   Dsus2   Dsus4

  To make you smile I found a new way
         A
  I've fallen in love


(Guitar 2)

E|---------------------------|
B|---------------------------|
G|---------------------------|
D|---------------------------|
A|-5-7-5-7---7-5-3-5-7-5-3---|
E|---------------------------|


  I could've fallen in love

PRE-CHORUS:

  D               E       F#m
  Out of our minds and of time
                          D
  Wishing I could be with you
               E
  To share the view

CHORUS:

  E                      A
  We could have fallen in love

(Riff 1)

  Woah oh woah oh oh (x2)
  A                       F#m
  We could have fallen in love

  Woah oh woah oh oh (x2)

SOLO

(Guitar 2)

e|--11-11-11-10-10-10-------11-11-11-10-10-10-------|
B|--------------------11-11--------------------8-8--|
G|--------------------------------------------------|
D|--------------------------------------------------|
A|--------------------------------------------------|
E|--------------------------------------------------|

e|--11-11-11-10-10-10--------13-13-13-13-13-13-13-13--|
B|--------------------11-11---------------------------|
G|----------------------------------------------------|
D|----------------------------------------------------|
A|----------------------------------------------------|
E|----------------------------------------------------|

repeat the last two lines.

e|--8h9-10-11-10-8------------------------------|
B|-----------------11-10-11-8--8-8-10-10-11-11--|
G|----------------------------------------------|
D|----------------------------------------------|
A|----------------------------------------------|
E|----------------------------------------------|

e|-8-8-10-10-11-11-13-13b15r-11-13--|
B|----------------------------------|
G|----------------------------------|
D|----------------------------------|
A|----------------------------------|
E|----------------------------------|


(Guitar 1)

  D  E  F#m  A  D  E  F#m  A  D E

BRIDGE                      (Palm muted)
  (A)
  I'm sick of waiting I can't take it gotta tell ya (x2)
  (F#m)
  I coundn't take another night on my own  (I'm sick of waiting I can't take it gotta tell you)
  (F#m)
  So I took a breath and then I pick up the phone  (I'm sick os waiting…)
 (D)
  She said woah oh oh  oh oh oh  (I'm sick of waiting…)
  (A)
  Woah oh oh (I'm sick of waiting…)
  D
  She said Woah oh oh oh oh oh (I'm sick…)
  A
  Woah oh oh (I'm sick…)

OUTRO:

  D
  Woah oh oh oh oh oh
  A
  We could've fallen in love (oh oh oh)
 D
  Oooooh (i'm sick…) …


(Guitar 1 )

E|-----2------2-------0-------0-----|
B|---3--3---3--3----3--3----3--3----|
G|-------2------2-------3-------3---|
D|-0------0------0-------3-------3--|     (Until end)
A|-----------------0------0-------0-|
E|----------------------------------|

            
            
Suggest correction
Creating personal tab
Creating personal tab
You can edit any tab online and save it as your Personal.

You can edit, replace or remove any tab part or add personal notes – all changes will be seen only by you.

Personal tabs can be accessed anytime from any device, even offline.
Learn more »
comments
print report bad tab
guest
You may want to rate the tab now too:
select rating
Wanna post a correction for this tab? Suggest correction