Oops, an error
Loading. Please wait.

Ghostbusters bass

version 1
version 1

Whole song

by McFly
20,690 views 3 this week
no commentswrite comment
1 2 3 4 5
2 more votes to show rating
add to favorites
×
Save as Personal and add changes to this tab that will be seen only by you. Learn more ›
×
You can save this tab as Personal to edit and correct it or add notes. All changes will be seen only by you. Learn more »
launch autoscroll
font size
0
reset
guitar tuner
edit
Autoscroll
slow
fast
+/-
esc
set tempo
stop
Author
__________________________
¯¯¯¯¯¯¯¯¯¯¯¯¯¯¯¯¯¯¯¯¯¯¯¯¯¯
Oh Hi ! :]
Someone asked me not so long ago
to tab this awesome cover McFly
did while their Motion in the ocean
tour : The Ghostbusters theme song.
It's an easy song, hope you like it !

*

Ghostbusters [Cover]
Artist : MCFLY
Album : Motion In The Ocean Tour (DVD), 2007

Tuning : Standard (EADG)
Tabbed By : Karine Bélanger (Aka. KwiiK)
email : kbine_01@hotmail.com
__________________________
¯¯¯¯¯¯¯¯¯¯¯¯¯¯¯¯¯¯¯¯¯¯¯¯¯¯


Intro, part A

G|-------------------------------------|
D|-------------------------------------|   Repeat it until it
A|--5h6p5h6p5h6p5h6p5h6p5h6p5h6p5h6p5--| fades to the next part
E|-------------------------------------|

part B

G|--------------------------------------|
D|--------------------------------------|
A|--------------------------------------|
E|-7~--3~--2~--1-1--0~--10~--66666666/--|


Verse

G|-----------------|     Repeat this
D|----------77-----|    part 16 times
A|------5/7----77--| But don't repeat the 
E|--\77------------|     slide down.


Chorus

G|--------------------|
D|--------------------|  Repeat this
A|--------------------| part 2 times.
E|--7~--5~----3~--0~--|


Verse

G|-----------------|     Repeat this
D|----------77-----|    part 12 times
A|------5/7----77--| 
E|---77------------|     


Chorus

G|--------------------|
D|--------------------|  Repeat this
A|--------------------| part 2 times.
E|--7~--5~----3~--0~--|


Verse and Bridge

G|-----------------|     Repeat this
D|----------77-----|    part 4 times
A|------5/7----77--| 
E|---77------------|

G|----------------------------------------|
D|----------------------------------------|
A|------------------------------9-7-------|
E|--7-5~---7-5~---7-5~---7-5~-------10-9--|

G|-----------------|     Repeat this   |----------| 
D|----------77-----|    part 5 times   |----------|    And play again the
A|------5/7----77--|     then, add...  |--555-----|  first part here 2 times
E|---77------------|                   |------75--|


Then, here, you have the little break
when Tom's talkin' to the crowd. You're
not obligated to play it, you can continue
with the other part below. But if you
want to play it, just play the same riff
as the verse and lower the volume, that's it !

Now, the final part.

G|------------|     Quicker than the rest      |---------|
D|------------| of the song. Play it 12 times  |---------|
A|--------77--|  Then, the final not after     |---------|
E|--777755----|    the little silence :        |--7\\\\--|


 Here it is ! :D

            
            
Suggest correction
Creating personal tab
Creating personal tab
You can edit any tab online and save it as your Personal.

You can edit, replace or remove any tab part or add personal notes – all changes will be seen only by you.

Personal tabs can be accessed anytime from any device, even offline.
Learn more »
Give kudos to tab author, rate the tab!
1 2 3 4 5
comments
print report bad tab
guest
You may want to rate the tab now too:
select rating
Wanna post a correction for this tab? Suggest correction