Oops, an error
Loading. Please wait.

I Kissed A Girl chords

by McFly
41,895 views 3 this week
10 commentsread comments
1 2 3 4 5
x 9
add to favorites
×
Save as Personal and add changes to this tab that will be seen only by you. Learn more ›
×
You can save this tab as Personal to edit and correct it or add notes. All changes will be seen only by you. Learn more »
launch autoscroll
font size
0
reset
transpose
0
reset
display chords
guitar tuner
edit
Autoscroll
slow
fast
+/-
esc
set tempo
stop
Author
Strumming
There is no strumming pattern for this song yet. and get +5 IQ
McFly - I kissed a girl
Tabbed by eiim (ultimate-guitar.com)

Intro:
e|------10-----7------12----7-|
B|---8-----8-------8-----8----|
G|--9-9---9-9-----9-9---9-9---|
D|----------------------------|
A|----------------------------|
E|----------------------------|

Verse 1:
Em          G              Am
This was never the way I planned
     C
Not my intention
Em        G               Am
I got so brave, drink in hand
      C
Lost my discretion
Em           G            Am
It's not what, I'm used to
      C            Em
Just wanna try you on
        G           Am
I'm curi-ous for you
        C
Caught my attention

Chorus:
Em          G                 Am
I kissed a girl and I liked it
                   C
The taste of her cherry chapstick
Em          G                 Am
I kissed a girl just to try it
                C
I hope my boyfriend don't mind it
Em           G
It felt so wrong
            Am
It felt so right
               C
Don't mean I'm in love tonight
Em          G                 Am
I kissed a girl and I liked it     (Hey)
C
    And I liked it

Verse 2:
Em          G               Am
No, I don't even know your name
    C
It doesn't matter, 
Em           G          Am
You're my experimental game
      C
Just human nature, 
Em           G              Am
It's not what, good girls do
     C                 Em
Not how they should behave
            G           Am
My head gets so confused
     C
Hard to obey


Chorus:
Em          G                 Am
I kissed a girl and I liked it
                   C
The taste of her cherry chapstick
Em          G                 Am
I kissed a girl just to try it
                C
I hope my boyfriend don't mind it
Em           G
It felt so wrong
            Am
It felt so right
               C
Don't mean I'm in love tonight
Em          G                 Am
'cause I kissed a girl and I liked it    (Oh Yeah)
C
    And I liked it

Bridge:
Em          G           Am
Us girls we are so magical
                C              Em
Soft skin, red lips, so kissable
           G              Am
Hard to resist so touchable
           C
Too good to deny it
Em            G              Am    C
Ain't no big deal, it's innocent

Chorus:
Em          G                 Am
I kissed a girl and I liked it
                   C
The taste of her cherry chapstick
Em          G                 Am
I kissed a girl just to try it
                C
I hope my boyfriend don't mind it   (Yeah)
Em           G
It felt so wrong
            Am
It felt so right
               C
Don't mean I'm in love tonight
Em          G                 Am
I kissed a girl and I liked it    (Hey)
C                B
    And I liked it
C             B
Yeah I liked it
C          (G   B)   Em
Mmm I liked it

            
            
Suggest correction
Creating personal tab
Creating personal tab
You can edit any tab online and save it as your Personal.

You can edit, replace or remove any tab part or add personal notes – all changes will be seen only by you.

Personal tabs can be accessed anytime from any device, even offline.
Learn more »
comments
print report bad tab
10 comments total. Showing first comments.
+1 reply
poxi22 52 Nov 15, 2008 04:17 AM

In the vid, when they play this song, all the intro, intro that you wrote, is played by Dougie with his bass. Its the intro of the bass part of the song, is not guitar. And its like this:

Intro:
|-------------------------------------------------------------------|
|-------------------------------------------------------------------|
|-------------------------------------------------------------------|
|-------------------------------------------------------------------|
|-----------------0-2-0-----------------0-2-0---------------0-2-0---|
|---0-0-0-0-0-0-0-------0-0-0-0-0-0-0-0-------0-0-0-0-0-0-0---------|

That is a 2, not a 1. But I only have the bass part till the chorus:)

.M

0 reply
poxi22 52 Nov 15, 2008 04:17 AM

In the vid, when they play this song, all the intro, intro that you wrote, is played by Dougie with his bass. Its the intro of the bass part of the song, is not guitar. And its like this:

Intro:
|-------------------------------------------------------------------|
|-------------------------------------------------------------------|
|-------------------------------------------------------------------|
|-------------------------------------------------------------------|
|-----------------0-2-0-----------------0-2-0---------------0-2-0---|
|---0-0-0-0-0-0-0-------0-0-0-0-0-0-0-0-------0-0-0-0-0-0-0---------|

That is a 2, not a 1. But I only have the bass part till the chorus:)

.M

-1 reply
poxi22 52 Nov 15, 2008 04:17 AM

In the vid, when they play this song, all the intro, intro that you wrote, is played by Dougie with his bass. Its the intro of the bass part of the song, is not guitar. And its like this:

Intro:
|-------------------------------------------------------------------|
|-------------------------------------------------------------------|
|-------------------------------------------------------------------|
|-------------------------------------------------------------------|
|-----------------0-2-0-----------------0-2-0---------------0-2-0---|
|---0-0-0-0-0-0-0-------0-0-0-0-0-0-0-0-------0-0-0-0-0-0-0---------|

That is a 2, not a 1. But I only have the bass part till the chorus:)

.M

guest
You may want to rate the tab now too:
select rating
Wanna post a correction for this tab? Suggest correction