Oops, an error
Loading. Please wait.

Lies tab

version 2
version 2

Whole song

by McFly
37,131 views 21 this week
2 commentsread comments
1 2 3 4 5
x 15
add to favorites
×
Save as Personal and add changes to this tab that will be seen only by you. Learn more ›
×
You can save this tab as Personal to edit and correct it or add notes. All changes will be seen only by you. Learn more »
launch autoscroll
font size
0
reset
how to read this tab
guitar tuner
edit
Autoscroll
slow
fast
+/-
esc
set tempo
stop
Author
McFly
Lies
Radio:ACTIVE Deluxe Edition
Tuning: Standart

INTRO
e|--0--|
B|--0--|
G|--0--|
D|--0--|
A|--0--|
E|--0--|

G1 (Tom)
e|------------------------------------------------------------------|
B|------------------------------------------------------------------|
G|--7-777777-777-----------------------------------------------7\\--|
D|--7-777777-777--8-8888888-888--9-9999999-999--8-888--77-777--7\\--|
A|--5-555555-555--8-8888888-888--9-9999999-999--8-888--77-777--5\\--|
E|----------------6-6666666-666--7-7777777-777--6-666--55-555-------|

G2 (Danny)
e|--------------------|
B|--------------------|
G|--------------------| x3
D|-----3-5-7-5-3---3--|
A|--5~-----------5----|
E|--------------------|

e|------------------------|
B|------------------------|
G|------------5-----------| 
D|-----3-5--7---7-5-3-----|
A|--5~----------------5---|
E|------------------------|


VERSE 1
G1 (Tom)
"No one's getting out alive..."
e|-------------------|
B|-------------------|
G|-------------------|
D|--------3--5h7-----|
A|--5--7---------5~--|
E|-------------------|

"I'm the way your weapons aim..."
e|-----------------|
B|-----------------|
G|-----------------|
D|--------3--5h7-8-|
A|--5--7-----------|
E|-----------------|

G2 (Danny)
"Do us all a favor..."
e|--10--10-10-10-10-10--13--|
B|--10--10-10-10-10-10--10--|
G|--------------------------| x2
D|--------------------------|
A|--------------------------|
E|--------------------------|

e|--9---9--9--9--9---12-12-12h13p12-10\--|
B|--10--10-10-10-10--10-10-10-------10\--|
G|---------------------------------------|
D|---------------------------------------|
A|---------------------------------------|
E|---------------------------------------|


VERSE 2
G2 (Danny)                          
e|--------------------------------------------|
B|--------------------------------------------|
G|----------7-7-7-77--------------------------|
D|--8---7---7-7-7-77--8---7\---7-7------------|
A|--8---7---5-5-5-55--8---7\---7-7--OR---4-7--|
E|--6---5-------------6---5\---5-5-----5------|

G1 (Tom)
"With things that I don't know about you baby..."
e|------------------|
B|------------------|
G|------------------|
D|-------3--5h7--8--|
A|--5--7------------|
E|------------------|


CHORUS
e|--------------------------------------------------------|
B|--------------------------------------------------------|
G|--7-7-7777-777------------------------------------------|
D|--7-7-7777-777--8-8-8888-888--9-9-9999-999--8-88--7-77--| x2
A|--5-5-5555-555--8-8-8888-888--9-9-9999-999--8-88--7-77--|
E|----------------6-6-6666-666--7-7-7777-777--6-66--5-55--|


INTRO x1


VERSE 3
G2 (Danny)
"You're never gonna make it home..."
e|-------------------|
B|-------------------|
G|-------------------|
D|--------3--5h7-----|
A|--5--7----------5--|
E|-------------------|

"Once you're lying in the broken glass..."
e|------------------|
B|------------------|
G|------------------|
D|--------3--5h7-8--|
A|--5--7------------|
E|------------------|

"And I hope, you get to hear me say..."
e|-------------------------|
B|-------------------------|
G|-------------------------|
D|--8--7\---7-7------------|
A|--8--7\---7-7--OR---4-7--|
E|--6--5\---5-5-----5------|

G1 (Tom)
"Did you miss the stop sign..."
e|--10--10-10-10-10-10--13--|
B|--10--10-10-10-10-10--10--|
G|--------------------------| x2
D|--------------------------|
A|--------------------------|
E|--------------------------|

e|--9---9--9--9--9---12-12-12h13p12-10\--|
B|--10--10-10-10-10--10-10-10-------10\--|
G|---------------------------------------|
D|---------------------------------------|
A|---------------------------------------|
E|---------------------------------------|

CHORUS x1

BRIDGE
G1 (Tom)
e|----------------------------|
B|----------------------------|
G|------7---------------------|
D|--5---7---7---------3--5h7--|
A|--5---5---7----5-7----------|
E|--3-------5-----------------|

e|-----------------------------------------|
B|-----------------------------------------|
G|------7----------------------------------|
D|--5---7---7-7-7-7-7-7-7-7-7-7-7-7-7-7-7--|
A|--5---5---7-7-7-7-7-7-7-7-7-7-7-7-7-7-7--|
E|--3-------5-5-5-5-5-5-5-5-5-5-5-5-5-5-5--|
        PM |------|   

G2 (Danny)
e|--15-15-15-15-15-15-13-13-13-13-13-13--|
B|--15-15-15-15-15-15-15-15-15-15-15-15--|
G|---------------------------------------|
D|---------------------------------------|
A|---------------------------------------|
E|---------------------------------------|

e|--12-12-12-12-12-12-13-13-13-13-13-13--|
B|--14-14-14-14-14-14-15-15-15-15-15-15--|
G|---------------------------------------|
D|---------------------------------------|
A|---------------------------------------|
E|---------------------------------------|

e|--15-15-15-15-15-15-13-13-13-13-13-13--|
B|--15-15-15-15-15-15-15-15-15-15-15-15--|
G|---------------------------------------|
D|---------------------------------------|
A|---------------------------------------|
E|---------------------------------------|

e|-9--9--9--9--9--9--9--9--9--9--9--9--9--9--9--|
B|-10-10-10-10-10-10-10-10-10-10-10-10-10-10-10-|
G|----------------------------------------------|
D|----------------------------------------------|
A|----------------------------------------------|
E|----------------------------------------------|

BASS SOLO
e|-----------------------------|
B|-----------------------------|
G|--7-7------------------------|
D|--7-7---8-8---9-9---8-8--7\--|
A|--5-5---8-8---9-9---8-8--7\--|
E|--------6-6---7-7---6-6--5\--|

INTRO x1

VERSE 4
e|----------------------------------------------------|
B|----------------------------------------------------|
G|----------------------------------------------------|
D|-8----10-------3-5h7---8----7\-7\-7\--7-7-----------|
A|-8----10---5-7---------8----7\-7\-7\--7-7--OR---4-7-|
E|-6----8----------------6----5\-5\-5\--5-5-----5-----|

CHORUS x1
INTRO x2

ENDING
After bass
e|--------|
B|--------|
G|--5-7\--|
D|--5-7\--|
A|--3-5\--|
E|--------|

            
            
Suggest correction
Creating personal tab
Creating personal tab
You can edit any tab online and save it as your Personal.

You can edit, replace or remove any tab part or add personal notes – all changes will be seen only by you.

Personal tabs can be accessed anytime from any device, even offline.
Learn more »
comments
print report bad tab
2 comments total.
0 reply
ImYourStarGirl 10 Apr 15, 2011 11:03 AM

what does e.g. 12h13p12 mean ?

0 reply
lééti 597 Apr 15, 2011 04:46 PM

means you play the 12th fret, hammer on the 13th fret, and then pull-off from that hammer-on back to the 12th fret.

guest
You may want to rate the tab now too:
select rating
Wanna post a correction for this tab? Suggest correction