Oops, an error
Loading. Please wait.

Met This Girl bass

version 1
version 1

Whole song

by McFly
3,234 views 1 this week
2 commentsread comments
1 2 3 4 5
x 5
add to favorites
×
Save as Personal and add changes to this tab that will be seen only by you. Learn more ›
×
You can save this tab as Personal to edit and correct it or add notes. All changes will be seen only by you. Learn more »
launch autoscroll
font size
0
reset
guitar tuner
edit
Autoscroll
slow
fast
+/-
esc
set tempo
stop
Difficulty
intermediate
Intro                         Verse
G|------------------|       G|-------------------------------------------|
D|------------------|       D|045------045-------------------------------|
A|045------045------| x2    A|---35-------35----045----------------------|
E|---35-------35----|       E|---------------------35----3333333300000000|

G|----------------------------------------|
D|045------045----------------------------|
A|---35-------35----045-------------------|
E|---------------------35----3333333300000|

Chorus
G|------------------------------------------------|
D|----------------55------------------------------|
A|55-------55-------5533-5-55-------5555555544443~|
E|--5533-5---5533-5----------5533-5---------------|

REPEAT VERSE
REPEAT CHORUS

Bridge (listen for timing)
G|-------------------|
D|--5~---------------|
A|5~--5~----4-5555554|
E|------543~---------|

REPEAT CHORUS
key change chorus (last)
G|----------------------------|
D|----------------------------|
A|77-------77-------7---------|
E|--7755-7---7755-7----676767\|

Thanks 2 my guitar teacher 4 riting dis out 4 me!

            
            
Suggest correction
Creating personal tab
Creating personal tab
You can edit any tab online and save it as your Personal.

You can edit, replace or remove any tab part or add personal notes – all changes will be seen only by you.

Personal tabs can be accessed anytime from any device, even offline.
Learn more »
comments
print report bad tab
2 comments total.
0 reply
need_more_tabs 10 Aug 29, 2006 10:55 AM

ummmm yeh, my tab :$
in the verse, it doesn't go up a string, it just goes
G|----------------------------------------------------|
D|----------------------------------------------------|
A|0-4-5----0-4-5-----5-5-3-3-5-0-4-5------------------|
E|------3-5------3-5-----------------3-5-3333333300000|

and the chorus is slightly more evil than that, but its really easy wen ur used 2 it
G|----------------|
D|----------------|
A|5-3-5-----------|
E|------5-33-5-555|

yeh. so. enjoy. cool 2 play.

0 reply
steve.lo 10 Jun 28, 2013 06:06 PM

Anyone know the riff after "they might take her away from me" in the 2nd verse?

guest
Wanna post a correction for this tab? Suggest correction