Oops, an error
Loading. Please wait.

Not Alone tab

version 4
version 4

Whole song

by McFly
18,902 views 3 this week
4 commentsread comments
1 2 3 4 5
x 18
add to favorites
×
Save as Personal and add changes to this tab that will be seen only by you. Learn more ›
×
You can save this tab as Personal to edit and correct it or add notes. All changes will be seen only by you. Learn more »
launch autoscroll
font size
0
reset
how to read this tab
guitar tuner
edit
Autoscroll
slow
fast
+/-
esc
set tempo
stop
McFly
Not Alone
Tuning: EADGBE (Standard)
Transribed by Soch H.

Intro: 
 C#m             B            A
|---11-12----------------------------------------------------------|
|---------12s14-12--12b14=---12b14r-10s9-10---9h10p9---------------|
|----------------------------------------------------11--9---------|
|------------------------------------------------------------------|
|------------------------------------------------------------------|
|------------------------------------------------------------------|
                               C#m      B               A
|-------------------------------11-12-12s14----14b16=--14b16-14b16-|
|-------------------------------------------12~--------------------|
|------9-11-11b13r-9-8---------------------------------------------|
|-9h11-----------------9s11----------------------------------------|
|------------------------------------------------------------------|
|------------------------------------------------------------------|

|-14b16-14b16r-12-11-----------------------------------------------|
|--------------------14-12-10--9-----------------------------------|
|------------------------------------------------------------------|
|------------------------------------------------------------------|
|------------------------------------------------------------------|
|------------------------------------------------------------------|

E                              A  B
Life is getting harder day by day
E                                       A  B
And I don't know what to do or what to say
C#m                     B
And my mind is growing weak
               A
Every step I take
          C#m         B                   A
It's uncontrollable, now they think I'm fair

'Cause I'm not alone
But I'm not alone
I'm not alone

Riff 1: (1:05)
E               B          A   E             B         A
|----------------------12----|-----------------------------------12-|
|9~-10~--12s14-12~--14~---14~|-9-10---12s14-12~-14--12-10--9h10-----|
|----------------------------|--------------------------------------|
|----------------------------|--------------------------------------|
|----------------------------|--------------------------------------|
|----------------------------|--------------------------------------|

E                             A   B
And I get on the train on my own
           E                                  A    B
Yeah, my tired radio keeps on playing tired songs
       C#m               B           A
And I know there's just not long to go
    C#m            B          A
And all I wanna do is just go on

But I'm not alone
But I'm not alone

Riff 2: (2:15)
  E             B           A          E            B        A
|-----------------------12--------------------------------------------12-|
|-9~-10~--12s14-12~-14~----14~--12-10--9~-10-12s14-12~-14-12-10--9h10----|
|------------------------------------------------------------------------|
|------------------------------------------------------------------------|
|------------------------------------------------------------------------|
|------------------------------------------------------------------------|
E                           F#    G   A
People rip me for the clothes I wear
E                           F#    
Everyday seems to be the same
            G    A
They just swear
           E
They just don't care
           F#
They just don't care
           A
They just don't care

'Cause I'm not alone
But I'm not alone
I'm not alone

(Play Riff 2)

Guitar Solo:  (3:31)                              
   E                                         B
|-14b16r-14b16r-14b16r-14b16r-14b16r-14b16r-14b16r-14b16r-14b16r-14b16r--|
|------------------------------------------------------------------------|
|------------------------------------------------------------------------|
|------------------------------------------------------------------------|
|------------------------------------------------------------------------|
|------------------------------------------------------------------------|
             A
|-14b16r-12-------12p11----------------12-14----14b16-14b16-14b16r-------|
|-----------14~---------14p12-14-12-14-------14--------------------------|
|------------------------------------------------------------------------|
|------------------------------------------------------------------------|
|------------------------------------------------------------------------|
|------------------------------------------------------------------------|
   E                                         B
|-14b16r-14b16r-14b16r-14b16r-14b16r-14b16r-14b16r-14b16r-14b16r-14b16r--|
|------------------------------------------------------------------------|
|------------------------------------------------------------------------|
|------------------------------------------------------------------------|
|------------------------------------------------------------------------|
|------------------------------------------------------------------------|
          A
|-14b16r-12--------------------------------------------------------------|
|-----------12h14p12-14----12h=13----------------------------------------|
|------------------------------------------------------------------------|
|------------------------------------------------------------------------|
|------------------------------------------------------------------------|
|------------------------------------------------------------------------|

Ending: E    A    B       E

Chords:
C#m:     x46654
B:       x2444x
A:       x02220  or  577655
E:       022100
F#:      244322
G:       355433





            
            
Suggest correction
Creating personal tab
Creating personal tab
You can edit any tab online and save it as your Personal.

You can edit, replace or remove any tab part or add personal notes – all changes will be seen only by you.

Personal tabs can be accessed anytime from any device, even offline.
Learn more »
comments
print report bad tab
4 comments total. Showing first comments.
0 reply
lifehouse_rock9 97 Jan 24, 2007 06:28 PM

fantastic job this is a way cool song and hope mcfly are around for a long time to come.

0 reply
Korn_Kid2003 10 Dec 17, 2007 04:24 AM

on the bridge, its played E, B, G, A otherwise great tab

0 reply
Guitarjosh123 10 Nov 02, 2008 06:27 AM

****ing nice tab!!
But i want to learn the arpeggio intro behind the solo intro to....

guest
You may want to rate the tab now too:
select rating
Wanna post a correction for this tab? Suggest correction