Oops, an error
Loading. Please wait.

Obviously bass

version 1
version 1

Whole song

Interactive

by McFly
14,505 views 27 this week
3 commentsread comments
1 2 3 4 5
x 8
add to favorites
×
Save as Personal and add changes to this tab that will be seen only by you. Learn more ›
×
You can save this tab as Personal to edit and correct it or add notes. All changes will be seen only by you. Learn more »
launch autoscroll
font size
0
reset
guitar tuner
edit
Autoscroll
slow
fast
+/-
esc
set tempo
stop
Author
its my first time tabbing, so please do inform me of any corrections. thanks!

nic.

G|-----------------------|-----------------------------|
D|--6-6---8-6-3---8-6-3--|-------8-6-3---8-6-3---------|
A|------4-------4--------|-----4-------4---------------|
E|-----------------------|-----------------------------|
 1. She's got a boyfriend    He drives her round the bend
 2. Gotta escape now         Get on a plane now, yeah   

G|---------------------------------|-------------------|
D|---------------------------------|-----8-6-3--8-6-3--|
A|-----------8-6-3---8-6-3---------|---4------4--------|
E|---------4-------4---------------|-------------------|
 1. Cos' he's 23, he's in the marines   He'd kill me
 2. Off to L.A, and that's where I'll stay, for two years

G|------------------------|-----------------------------------|
D|-----4-4-444------------|------4-4-444---8-6-3-6-6----------|
A|-------------4-4-444----|------------------4----------------|
E|------------------------|-----------------------------------|
  1. For so many nights now     I find myself thinking about her now
  2. I'll put it behind me (x2) Go to a place where she can't find me, oh..

G|-----------------|---------------|------------------|--------------------|
D|-----------------|---3-33-333----|------4-44-444----|----5-55-555--------|
A|----4-44-444-----|---------------|------------------|--------------------|
E|-----------------|---------------|------------------|--------------------|
 1. Cos obviously, she's outa my league   But how can I win, she keeps dragging me in
 2. Cos obviously, she's outa my league   I'm wasting my time, she'll never be mine

G|--------------------------------------------------------------|
D|-----4---4--4—--4--6--6--6--6-------8-6-3---8-6-3-------------|
A|---------------------------------4--------4-------------------|
E|--------------------------------------------------------------|
 1. and I know I never will be good enough for her, no no..
 2. and I know I never will be good enough for her, no no..

G|--------------------------------------------------------------|
D|-----4---4--4—--4--6--6--6--6-------8-6-3---8-6-3-------------|
A|---------------------------------4--------4-------------------|
E|--------------------------------------------------------------|
 1. Never will be good enough for her..
 2. Never will be good enough for her..

G|-----------------------------------------|-------------------------------|
D|-----------------------------------------|------------------3-4-6-3------|
A|--------------3-44--44-3-----------------|----------3-4-6-6---------4----|
E|--------3-5-6------------6---------------|-------------------------------|
Bridge: She's outa my head and I'll never know where I stand, cos I know I'm not good enough for her.

            
            
Suggest correction
Creating personal tab
Creating personal tab
You can edit any tab online and save it as your Personal.

You can edit, replace or remove any tab part or add personal notes – all changes will be seen only by you.

Personal tabs can be accessed anytime from any device, even offline.
Learn more »
comments
print report bad tab
3 comments total.
0 reply
-TeddyNapperFi- 121 Jan 29, 2006 11:26 AM

It's inaccurate.

0 reply
sofie-lu 10 Feb 08, 2006 04:52 AM

I am learning this wahhoo

+1 reply
Bassist_Meg 10 Dec 28, 2007 05:12 AM

I Like the way you've tabbed this. It makes it easier to know when you have to play what. It Kwl!

guest
You may want to rate the tab now too:
select rating
Wanna post a correction for this tab? Suggest correction