Oops, an error
Loading. Please wait.

One For The Radio tab

version 1
version 1

Whole song

by McFly
9,935 views 1 this week
1 commentread comment
1 2 3 4 5
1 last vote to show rating
add to favorites
×
Save as Personal and add changes to this tab that will be seen only by you. Learn more ›
×
You can save this tab as Personal to edit and correct it or add notes. All changes will be seen only by you. Learn more »
launch autoscroll
font size
0
reset
how to read this tab
guitar tuner
edit
Autoscroll
slow
fast
+/-
esc
set tempo
stop
Author
Hey, this is how i play one for the radio by McFly 
its very similar to other ones but this is my 
interpretation of it and in tab form. 
You'll have to work out the timings aswell but 
its easy! :) hope its not too bad and you can read it. 
Im not great at tabbing so here goes:

Tuning: Standard
    A                                 E  B  E  E  E  E
e|--5---------------------------------7--7--7--7--7--7----------------|
B|--5---------------------------------9--7--9--9--9--9----------------|
G|--6---------------------------------9--8--9--9--9--9----------------|
D|--7---------------------------------9--9--9--9--9--9----------------|
A|--7---------------------------------7--9--7--7--7--7----------------|
E|--5---------------------------------7--7--7--7--7--7----------------|

Verse 1
      E      E/D#   C#m     A    A/G#  F#m    E
e|--12-12---11-11---9--9---5-5---4-4---2-2---0-0---|
B|--12-12---11-11---9--9---5-5---4-4---2-2---0-0---|
G|--13-13---13-13---9--9---6-6---6-6---2-2---1-1---|
D|--14-14---14-14---11-11--7-7---7-7---4-4---2-2---|
A|--14-14---14-14---11-11--7-7---7-7---4-4---2-2---|
E|--12-12---11-11---9--9---5-5---4-4---2-2---0-0---| X 2

Pre-Chorus
    E G#m  A  B    E G#m  A  B   C#m  G#m   A   G#m  F#m  A   B
e|--0---4-5-5-7----0---4-5-5-7---4-4--4-4--5-5--4-4---2---5---7-----------|
B|--0---4-5-5-7----0---4-5-5-7---5-5--4-4--5-5--4-4---2---5---7-----------|
G|--1---4-6-6-8----1---4-6-6-8---6-6--4-4--6-6--4-4---2---6---8-----------|
D|--2---6-7-7-9----2---6-7-7-9---6-6--6-6--7-7--6-6---4---7---9-----------|
A|--2---6-7-7-9----2---6-7-7-9---4-4--6-6--7-7--6-6---4---7---9-----------|
E|--0---4-5-5-7----0---4-5-5-7---4-4--4-4--5-5--4-4---2---5---7-----------|

Chorus
    A   E   B     A  C#m  E   A   A   E   B  C#m  A   E
e|--5---7---7-----5---4---7---5---5---7---7---4---5---0-----------------|
B|--5---9---7-----5---5---9---5---5---9---7---5---5---0-----------------|
G|--6---9---8-----6---6---9---6---6---9---8---6---6---1-----------------|
D|--7---9---9-----7---6---9---7---7---9---9---6---7---2-----------------|
A|--7---7---9-----7---4---7---7---7---7---9---4---7---2-----------------|
E|--5---7---7-----5---4---7---5---5---7---7---4---5---0-----------------|

Verse 2
      E      E/D#   C#m     A    A/G#  F#m    E
e|--12-12---11-11---9--9---5-5---4-4---2-2---0-0---|
B|--12-12---11-11---9--9---5-5---4-4---2-2---0-0---|
G|--13-13---13-13---9--9---6-6---6-6---2-2---1-1---|
D|--14-14---14-14---11-11--7-7---7-7---4-4---2-2---|
A|--14-14---14-14---11-11--7-7---7-7---4-4---2-2---|
E|--12-12---11-11---9--9---5-5---4-4---2-2---0-0---| X 2

Pre-Chorus
    E G#m  A  B    E G#m  A  B   C#m  G#m   A   G#m  F#m  A   B
e|--0---4-5-5-7----0---4-5-5-7---4-4--4-4--5-5--4-4---2---5---7-----------|
B|--0---4-5-5-7----0---4-5-5-7---5-5--4-4--5-5--4-4---2---5---7-----------|
G|--1---4-6-6-8----1---4-6-6-8---6-6--4-4--6-6--4-4---2---6---8-----------|
D|--2---6-7-7-9----2---6-7-7-9---6-6--6-6--7-7--6-6---4---7---9-----------|
A|--2---6-7-7-9----2---6-7-7-9---4-4--6-6--7-7--6-6---4---7---9-----------|
E|--0---4-5-5-7----0---4-5-5-7---4-4--4-4--5-5--4-4---2---5---7-----------|

Chorus
    A   E   B     A  C#m  E   A   A   E   B  C#m  A   E
e|--5---7---7-----5---4---7---5---5---7---7---4---5---0-----------------|
B|--5---9---7-----5---5---9---5---5---9---7---5---5---0-----------------|
G|--6---9---8-----6---6---9---6---6---9---8---6---6---1-----------------|
D|--7---9---9-----7---6---9---7---7---9---9---6---7---2-----------------|
A|--7---7---9-----7---4---7---7---7---7---9---4---7---2-----------------|
E|--5---7---7-----5---4---7---5---5---7---7---4---5---0-----------------|

We dont care bit just start on E and slide up to 12th fret E:
  E  F  F# G  G# A  A# B  C  C# D  D# E
e|0--1--2--3--4--5--6--7--8--9--10-11-12--|
B|0--1--2--3--4--5--6--7--8--9--10-11-12--|
G|1--2--3--4--5--6--7--8--9--10-11-12-13--|
D|2--3--4--5--6--7--8--9--10-11-12-13-14--|
A|2--3--4--5--6--7--8--9--10-11-12-13-14--|
E|0--1--2--3--4--5--6--7--8--9--10-11-12--|

Bridge
This is slowly strummed or you can pick it:

      E      E/D#   C#m     A    
e|--12-12---11-11---9--9---5-5---|
B|--12-12---11-11---9--9---5-5---|
G|--13-13---13-13---9--9---6-6---|
D|--14-14---14-14---11-11--7-7---|
A|--14-14---14-14---11-11--7-7---|
E|--12-12---11-11---9--9---5-5---|X2


Chorus
    A   E   B     A  C#m  E   A   A   E   B  C#m  A   E
e|--5---7---7-----5---4---7---5---5---7---7---4---5---0-----------------|
B|--5---9---7-----5---5---9---5---5---9---7---5---5---0-----------------|
G|--6---9---8-----6---6---9---6---6---9---8---6---6---1-----------------|
D|--7---9---9-----7---6---9---7---7---9---9---6---7---2-----------------|
A|--7---7---9-----7---4---7---7---7---7---9---4---7---2-----------------|
E|--5---7---7-----5---4---7---5---5---7---7---4---5---0-----------------|

    A   E   B     A  C#m  E   A   A   E   B  C#m  A   E  F#m  E  F#m  E
e|--5---7---7-----5---4---7---5---5---7---7---4---5---0---2---0---2---0--|
B|--5---9---7-----5---5---9---5---5---9---7---5---5---0---2---0---2---0--|
G|--6---9---8-----6---6---9---6---6---9---8---6---6---1---2---1---2---1--|
D|--7---9---9-----7---6---9---7---7---9---9---6---7---2---4---2---4---2--|
A|--7---7---9-----7---4---7---7---7---7---9---4---7---2---4---2---4---2--|
E|--5---7---7-----5---4---7---5---5---7---7---4---5---0---2---0---2---0--|

At the end i add E B E to make it sound funny but thats just me lol




            
            
Suggest correction
Creating personal tab
Creating personal tab
You can edit any tab online and save it as your Personal.

You can edit, replace or remove any tab part or add personal notes – all changes will be seen only by you.

Personal tabs can be accessed anytime from any device, even offline.
Learn more »
Give kudos to tab author, rate the tab!
1 2 3 4 5
comments
print report bad tab
1 comment total.
0 reply
*Tasha* 80 Jul 02, 2008 08:30 AM

I've just realised that i've left out B in the verse:
should be

Verse 1
E E/D# C#m A A/G# F#m E
e|--12-12---11-11---9--9---7-7--5-5---4-4---2-2---0-0---|
B|--12-12---11-11---9--9---7-7--5-5---4-4---2-2---0-0---|
G|--13-13---13-13---9--9---8-8--6-6---6-6---2-2---1-1---|
D|--14-14---14-14---11-11--9-9--7-7---7-7---4-4---2-2---|
A|--14-14---14-14---11-11--9-9--7-7---7-7---4-4---2-2---|
E|--12-12---11-11---9--9---7-7--5-5---4-4---2-2---0-0---|

guest
You may want to rate the tab now too:
select rating
Wanna post a correction for this tab? Suggest correction