Oops, an error
Loading. Please wait.

One For The Radio tab

version 2
version 2

Whole song

by McFly
15,430 views 9 this week
no commentswrite comment
1 2 3 4 5
x 5
add to favorites
×
Save as Personal and add changes to this tab that will be seen only by you. Learn more ›
×
You can save this tab as Personal to edit and correct it or add notes. All changes will be seen only by you. Learn more »
launch autoscroll
font size
0
reset
how to read this tab
guitar tuner
edit
Autoscroll
slow
fast
+/-
esc
set tempo
stop
Author
One For The Radio
McFly
Radio:ACTIVE
Tuning: Standart

INTRO
      G1 (Tom)         G2 (Danny)
e|-----------------| |-----------|
B|-----------------| |-----------|
G|--2---6-4--99999-| |-6-4-------|
D|--2---x-x--xxxxx-| |-x-x-------|
A|--0---4-2--77777-| |-4-2-------|
E|-----------------| |------x///-|


VERSE 1
G1 (Tom)
e|-----------------| 
B|-----------------| 
G|--99999999999999-| 
D|--xxxxxxxxxxxxxx-| 
A|--77777777777777-| 
E|-----------------|

G2 (Danny)
e|--------------| (if you're not sure how to do this, 
B|--------------|  watch what Danny does in this video:
G|--------------|  uk.youtube.com/watch?v=AXVBDpF8YDQ)
D|--------------|  
A|--------------|
E|--x//////////-| 


BRIDGE
e|-----------------| 
B|-----------------|
G|-----------------| 
D|--\2---6-7--9-9--| x2
A|--\2---6-7--9-9--|
E|--\0---4-5--7-7--|

e|------------------------------------|
B|------------------------------------|
G|--6-6-------------------------------|
D|--6-6--6-6--7-6-2--4-x-x-x-4-x-x-x--|
A|--4-4--6-6--7-6-2--4-x-x-x-4-x-x-x--|
E|-------4-4--5-4-0--2-x-x-x-2-x-x-x--|
   
e|---------------------------------------|
B|---------------------------------------|
G|---------------------------------------|
D|--7-x-x-x-7-x-x-x--9-x-x-x-9-x-x-x-9\--|
A|--7-x-x-x-7-x-x-x--9-x-x-x-9-x-x-x-9\--|
E|--5-x-x-x-5-x-x-x--7-x-x-x-7-x-x-x-7\--|


CHORUS
e|---------------------------------------------|
B|---------------------------------------------|
G|------------------9-4-----------6-x-x-x-6-9--|
D|--6-7-7-7-7--2-2--x-x--7-7-7-7--6-x-x-x-x-x--|
A|--6-7-7-7-7--2-2--7-2--7-7-7-7--4-x-x-x-4-7--|
E|--4-5-5-5-5--0-0-------5-5-5-5---------------|

e|-------------------------------------------|
B|-------------------------------------------|
G|-----------9-8-6-----------4-x-x-x--99999--| -> G2 (Danny) finishes 
D|--7-7-7-7--x-x-x--4-x-x-x--4-x-x-x--xxxxx--|    this and then starts
A|--7-7-7-7--7-6-4--4-x-x-x--2-x-x-x--77777--|    the mute sliding again
E|--5-5-5-5---------2-x-x-x------------------|     


VERSE 1 x1
BRIDGE x1
CHORUS x1


INTERLUDE (We don't, we don't care)
     G1 (Tom)           G2 (Danny)
e|--0-0-0-0-0--| |------------------------------|
B|--0-0-0-0-0--| |------------------------------|
G|--0-0-0-0-0--| |--99999-1010101010-1111111111-|
D|--0-0-0-0-0--| |--xxxxx-x-x-x-x-x--x-x-x-x-x--|
A|--0-0-0-0-0--| |--77777-8-8-8-8-8--9-9-9-9-9--|
E|--0-0-0-0-0--| |------------------------------|
                 just keep sliding until
                 the we don't care ends
                 and finish on the 19th fret


BREAKDOWN
G2 (Danny)
e|----------------|     
B|----------5--5--|     
G|--9---8---6--6--| 2x  
D|--9---8---6--7--|     
A|--7---6---4--7--|     
E|-------------5--|     

G1 (Tom)
(The amount of times played it's not exact, but you know what I mean)
e|-----------------------------------|
B|-----------------------------------|
G|-----------------------------------|
D|-14--14--14--14--13--13--13--13----|
A|---14--14--14--14--14--14--14--14--|
E|-----------------------------------|
PM |-------------------------------|

e|------------------------------------|
B|------------------------------------|
G|------------------------------------|
D|--14--14--14--14--16--16--16--16----|
A|----14--14--14--14--14--14--14--14--|
E|------------------------------------|
PM |------------------------|
                         
e|----------------------------------|
B|----------------------------------|
G|----------------------------------|
D|-14--14--14--14--13--13--13--13---|
A|---14--14--14--14--14--14--14--14-|
E|----------------------------------|
PM |-----------------------|       

e|---------------------------------------|
B|---------------------------------------|
G|---------------------------------------|
D|-14--14--14--14--16--16--16--16---12\--|
A|---16--16--16--16--14--14--14--14-12\--|
E|---------------------------------------|
PM |-------------------|      

                           
CHORUS
e|-----------------------------------|
B|-----------------------------------|
G|--------9-4-----------6-x-x-x-6-9--|
D|--7\----x-x--7-7-7-7--6-x-x-x-x-x--|
A|--7\----7-2--7-7-7-7--4-x-x-x-4-7--|
E|--5\---------5-5-5-5---------------|

e|-----------------------------------------------|
B|-----------------------------------------------|
G|-----------9-8-6-----------4-x-x-x--------9-4--| 
D|--7-7-7-7--x-x-x--4-x-x-x--4-x-x-x--2-x-x-x-x--|    
A|--7-7-7-7--7-6-4--4-x-x-x--2-x-x-x--2-x-x-7-2--|    
E|--5-5-5-5---------2-x-x-x-----------0-x-x------|    

e|-----------------------------------------------|
B|-----------------------------------------------|
G|--------------------9-4-----------6-x-x-x-6-9--|
D|--7-7-7-7--2-2-2-2--x-x--7-7-7-7--6-x-x-x-x-x--|
A|--7-7-7-7--2-2-2-2--7-2--7-7-7-7--4-x-x-x-4-7--|
E|--5-5-5-5--0-0-0-0-------5-5-5-5---------------|

e|------------------------------------|
B|------------------------------------|
G|-----------9-8-6-----------4-x-x-x--| 
D|--7-7-7-7--x-x-x--4-x-x-x--4-x-x-x--|   
A|--7-7-7-7--7-6-4--4-x-x-x--2-x-x-x--|   
E|--5-5-5-5---------2-x-x-x-----------|    


ENDING
G2 (Danny)
e|----------------------------------------------| 
B|----------------------------------------------| 
G|--13-13--11-11--9-9--8-8--6-6--4-4--6-6--8-8--| 
D|--x--x---x--x---x-x--x-x--x-x--x-x--x-x--x-x--| 
A|--11-11--9--9---7-7--6-6--4-4--2-2--4-4--6-6--| 
E|----------------------------------------------| 

e|------------------------------------------------| 
B|------------------------------------------------| 
G|--13-13--11-11--9-9--8-8--6-6--4-4--6-6--8-8-8--| 
D|--x--x---x--x---x-x--x-x--x-x--x-x--x-x--x-x-x--| 
A|--11-11--9--9---7-7--6-6--4-4--2-2--4-4--6-6-6--| 
E|------------------------------------------------|

G1 (Tom)
e|-----------------------------------------| 
B|-----------------------------------------| 
G|--9-9--8-8--6-6--4-4---------------------| 
D|--x-x--x-x--x-x--x-x--7-7--7-7--4-4--2-2-| 
A|--7-7--6-6--4-4--2-2--7-7--7-7--4-4--2-2-| 
E|----------------------5-5--4-4--2-2--0-0-| 

e|--------------------------------------------| 
B|--------------------------------------------| 
G|--9-9--8-8--6-6--4-4------------------------| 
D|--x-x--x-x--x-x--x-x--7-7--7-7--4-4--2-2-2--| 
A|--7-7--6-6--4-4--2-2--7-7--7-7--4-4--2-2-2--| 
E|----------------------5-5--4-4--2-2--0-0-0--| 


===============
x - mute
/ - slide up
\ - slide down
PM - palm mute
===============

            
            
Suggest correction
Creating personal tab
Creating personal tab
You can edit any tab online and save it as your Personal.

You can edit, replace or remove any tab part or add personal notes – all changes will be seen only by you.

Personal tabs can be accessed anytime from any device, even offline.
Learn more »
comments
print report bad tab
guest
You may want to rate the tab now too:
select rating
Wanna post a correction for this tab? Suggest correction