Oops, an error
Loading. Please wait.

Only The Strong Survive bass

by McFly
1,707 views 1 this week
no commentswrite comment
1 2 3 4 5
2 more votes to show rating
add to favorites
×
Save as Personal and add changes to this tab that will be seen only by you. Learn more ›
×
You can save this tab as Personal to edit and correct it or add notes. All changes will be seen only by you. Learn more »
launch autoscroll
font size
0
reset
guitar tuner
edit
Autoscroll
slow
fast
+/-
esc
set tempo
stop
Author
__________________________
¯¯¯¯¯¯¯¯¯¯¯¯¯¯¯¯¯¯¯¯¯¯¯¯¯¯
Heyy, long time no see, people !
I know, a lot of you asked me to do this tab
but i had a lot of things to do, and i just 
slow down the bass and workin' much more on the guitar.
Well, I just picked my Bass up again and decided to 
finish this tab for you !
I hope you'll like it :]
and YAY, the Radio:ACTIVE DVD is coming soon ! :D
*

Only The Strong Survive
Artist : MCFLY
Album : Radio:ACTIVE (2008)

Tuning : Standard (EADG)
Tabbed By : Karine Bélanger (Aka. KwiiK)
email : kbine_01@hotmail.com
__________________________
¯¯¯¯¯¯¯¯¯¯¯¯¯¯¯¯¯¯¯¯¯¯¯¯¯¯

/ : Slide up
\ : Slide down

Intro

G|-------------------------------------|
D|-2---2---2---2---2---2---2---2---2---|
A|---24--24--24--24--24--24--24--24----|
E|-------------------------------------|

G|-------------------------------------|
D|---2---2---2----2---2---2---2--------|
A|-24--24--24--242--24--24--24--242----|
E|-------------------------------------|


Verse 1 (0:13)

G|-------------------------------------|
D|-2---2---2---2----2--2---2---2-------|
A|---24--24--24--242-24--24--24--242---|
E|-------------------------------------|

G|-------------------------------------|
D|-2---2---2---2---2---2---2---2-------|
A|---24--24--24--24--24--24--24--242---|
E|-------------------------------------|

G|-------------------------------------|
D|-2---2---2---2----2--2---2---2-------|
A|---24--24--24--242-24--24--24--242---|
E|-------------------------------------|

G|-------------------------------------|
D|-2---2---2---2---2---2---------------|
A|---24--24--24--24--24--24222222/10\--|
E|-------------------------------------|


Chorus (0:41)

G|-------------------------------------|
D|-------------------------------------|
A|------22-0000------22-44000----------|
E|-0-55---------0-55----------0-55-----|

G|-------------------------------------|
D|-------------4-4-4-4-----------------|
A|-220000-44002-2-2-2-2200-------------|
E|------------------------4422---------|


Verse (0:56)

G|-------------------------------------|
D|-2---2---2---2----2--2---2---2-------|
A|---24--24--24--242-24--24--24--242---|
E|-------------------------------------|

G|-------------------------------------|
D|-2---2---2---2----2--2---2---2-------|
A|---24--24--24--242-24--24--24--242---|
E|-------------------------------------|

G|-------------------------------------|
D|-2---2---2---2---2---2---------------|
A|---24--24--24--24--24--24222222/10\--|
E|-------------------------------------|


Chorus (1:17)

G|-------------------------------------|
D|-------------------------------------|
A|------22-0000------22-44000----------|
E|-0-55---------0-55----------0-55-----|

G|-------------------------------------|
D|-------------4-4-4-4-----------------|
A|-220000-44002-2-2-2-2200-------------|
E|------------------------4422---------|


Bridge time! (1:32)

G|-------------------------------------|
D|-444444444444444446------------------|
A|-------------------4444444444444444--|
E|-------------------------------------|

G|-------------------------------------|
D|------------------------76-76-46-----|
A|--------------------------7--7-------|
E|-5-00-000000000-5-00-0---------------|  

G|-------------------------------------|
D|-444444444444444446------------------|
A|-------------------4444444444444444--|
E|-------------------------------------|

G|-------------------------------------|
D|-------------------------------------|
A|-5555555555555555552222222222222222--|
E|-------------------------------------|

[Silence here :D]

G|-----9------8-------6-------2--------|
D|-------------------------------------|
A|-------------------------------------|
E|-------------------------------------|

G|-99999999888888886666666622222222-------------------|
D|-----------------------------------------2----------|
A|----------------------------------------------2/10\-|
E|------------------------------------0---------------|


Chorus with some modifications. (2:41)

G|-------------------------------------|
D|-------------------------------------|
A|------22-0000------22-44000----------|
E|-0-55---------0-55----------0-55-----|

G|-------------------------------------|
D|-------------4-4-4-4-----------------|
A|-220000-44002-2-2-2-2----------------|
E|-------------------------------------|


Nanananaaa nananaaa nananaaa nananaaanaaaaa... (2:55)

G|-------------------------------------|
D|-2-----------2-----------------------|
A|---20-44022----20-44022--------------|
E|-------------------------------------|

G|-------------------------------------|
D|-2---------------4-4-4---------------|
A|---20-44022-44002-2-2-2-20-----------|
E|--------------------------544220 ----|

G|-------------------------------------|
D|-------------------------------------|
A|-------------------------------------|
E|-75544220-75544220-0-----------------|


THE END :]

I know, the last part in the Chorus is not totally right, 
but i think you can figure out how to play this little part, have fun ! :]

            
            
Suggest correction
Creating personal tab
Creating personal tab
You can edit any tab online and save it as your Personal.

You can edit, replace or remove any tab part or add personal notes – all changes will be seen only by you.

Personal tabs can be accessed anytime from any device, even offline.
Learn more »
Give kudos to tab author, rate the tab!
1 2 3 4 5
comments
print report bad tab
guest
You may want to rate the tab now too:
select rating
Wanna post a correction for this tab? Suggest correction