Oops, an error
Loading. Please wait.

Only The Strong Survive tab

by McFly
6,969 views 1 this week
no commentswrite comment
1 2 3 4 5
x 4
add to favorites
×
Save as Personal and add changes to this tab that will be seen only by you. Learn more ›
×
You can save this tab as Personal to edit and correct it or add notes. All changes will be seen only by you. Learn more »
launch autoscroll
font size
0
reset
how to read this tab
guitar tuner
edit
Autoscroll
slow
fast
+/-
esc
set tempo
stop
Author
McFly
Only The Strong Survive
Radio:ACTIVE Deluxe Edition
Tuning: Standard
Guitar 1 plays powerchords, guitar 2 plays bar chords

INTRO
           G1                   G2
e|----------------------| |------0---0--|
B|----------------------| |----0---0----|
G|--1--2--2/4--4/6-4-2--| |-------------|
D|----------------------| |-------------|
A|----------------------| |-------------|
E|----------------------| |--0---0------|


VERSE 1
Same as intro

The worst is over
And the sky is clear
And there's not a place on Earth I'd rather be than here
But on the horizon
As the morning breaks
                                                 B
I can see a brand new day that's full of new mistakes


CHORUS
                              E    A  B
They tell me that only the strong survive
             A                  E    A   B
I don't know if I'll make it through the night
        C#m  A              E  A  B
I guess I'll see you in the afterlife
             A                C#m  A  B
They tell me that only the strong survive

e|-------------|
B|-------------|
G|-------------|
D|-------------|
A|--22---------|
E|-----55-4-2--|

INTRO x1

VERSE 2
Same as intro

Gotta keep on running
Stay on the attack
                                                       B
'Cause the day you quit's the day you wish you had it back

CHORUS
                              E    A  B
They tell me that only the strong survive
             A                  E    A   B
I don't know if I'll make it through the night
        C#m  A              E  A  B
I guess I'll see you in the afterlife
             A                C#m  A  B
They tell me that only the strong survive

e|-------------|
B|-------------|
G|-------------|
D|-------------|
A|--22---------|
E|-----55-4-2--|


BRIDGE
F#m
If we're gonna die tomorrow
C#m
At least we can say
              A  E
Life has been alright
               A  E
Yeah it's been alright

F#m
We can beg and we can borrow
C#m
But in the end 
             D  
Everything's alright
             B
Everything's alright, alright

INTRO x2

BREAKDOWN
Same as intro

Guitar 3 (background):
|--4----5--4-----|
|----7--------7--|
|----------------|
|----------------|
|----------------|
|----------------|

Everytime we get up we'll be destined to fall
And I'm asking myself, is it worth this at all?
Every corner we turn we just run into walls
Because loving you feel's like a kick in your balls

Everytime we get up we'll be destined to fall (destined to fall)
And I'm asking myself, is it worth this at all? (worth this at all)
Every corner we turn we just run into walls
Because loving you feel's like a kick in your balls

e|------------|
B|------------|
G|------2--4--| x2
D|--2---2--4--|
A|--2---0--2--|
E|--0---------|

CHORUS
                              E    A  B
They tell me that only the strong survive
             A                  E    A   B
I don't know if I'll make it through the night
        C#m  A              E  A  B
I guess I'll see you in the afterlife
             A                C#m  A  B
They tell me that only the strong survive

E  B A  C#m  A B  x3

Na na na na na

             A                C#m  A  B
They tell me that only the strong survive

|---------------|
|---------------|
|---------------|
|---------------| x2
|--22-----------|
|-----55-44-22--|

|-------------------|
|-------------------|
|-------------------|
|----------------2--|
|--22------------2--|
|-----55-44-22-0-0--|

|------------------------------------------|
|--10b12==rp8-10p8~------------------------|
|--------------------9p7-------------------|
|------------------------9p7---------------|
|----------------------------10-12b14rp10--|
|------------------------------------------|

            
            
Suggest correction
Creating personal tab
Creating personal tab
You can edit any tab online and save it as your Personal.

You can edit, replace or remove any tab part or add personal notes – all changes will be seen only by you.

Personal tabs can be accessed anytime from any device, even offline.
Learn more »
comments
print report bad tab
guest
You may want to rate the tab now too:
select rating
Wanna post a correction for this tab? Suggest correction