Oops, an error
Loading. Please wait.

She Left Me bass

version 1
version 1

Whole song

Interactive

by McFly
2,008 views 3 this week
3 commentsread comments
1 2 3 4 5
1 last vote to show rating
add to favorites
×
Save as Personal and add changes to this tab that will be seen only by you. Learn more ›
×
You can save this tab as Personal to edit and correct it or add notes. All changes will be seen only by you. Learn more »
launch autoscroll
font size
0
reset
guitar tuner
edit
Autoscroll
slow
fast
+/-
esc
set tempo
stop
Author
Difficulty
Mcfly - She Left Me

Transcribed by BetrayerXD

Legend:
/ = Ascending slide
\ = Descending slide
~ = Vibrato (Holding the note)
*Dance around* = Dance around the room


D---------------------------3-1-|
A-----------3--1-3-4--3-4-6-----|
E------4--4---------------------|

G---------------------------6-8-6-------|
D-------------------------6-------6-----|
A-----------3--1-3-4--4-4---------------|
E------4--4-------------------------4\--|


G--R--------------------------------|
D--E--------------------------------|
A--S--------------------------------|
E--T--------------------------------|


D-------------------------3-1---|
A--------3--1-3-4--3-4-6------3-|
E-16/4-4------------------------|

G--------------------------------------------------5-6-|
D------------------------------------------------------|
A-3-------4---4-6---6-8~--8-7~--7-6~---6-5/1--4--4-----|
E---1---1----------------8-----8-----6-----------------|

D-----------------------------|
A-----3--1-3-4--3-4-6-6-6-6-6-|
E-4-4-------------------------|


G------------------------------------------6-8-6-----|
D---------------------3-1----------------6-------6---|
A-----3--1-3-4--3-4-6------------------4-------------|
E-4-4---------------------4--4-1
                

            
            
Suggest correction
Creating personal tab
Creating personal tab
You can edit any tab online and save it as your Personal.

You can edit, replace or remove any tab part or add personal notes – all changes will be seen only by you.

Personal tabs can be accessed anytime from any device, even offline.
Learn more »
Give kudos to tab author, rate the tab!
1 2 3 4 5
comments
print report bad tab
3 comments total.
0 reply
noobboyy 41 Jul 24, 2008 02:36 AM

everything is correct, except that this is tabbed 1 fret higher

0 reply
noobboyy 41 Jul 31, 2008 02:32 AM

my bad! i just realised that this is the live version! 5 stars!

0 reply
lééti 597 Aug 22, 2008 08:38 AM

i think that for the studio version this should be 1 fret lower, goes along better with the guitar

guest
You may want to rate the tab now too:
select rating
Wanna post a correction for this tab? Suggest correction