Oops, an error
Loading. Please wait.

Sorrys Not Good Enough bass

version 1
version 1

Whole song

by McFly
6,191 views 3 this week
3 commentsread comments
1 2 3 4 5
x 6
add to favorites
×
Save as Personal and add changes to this tab that will be seen only by you. Learn more ›
×
You can save this tab as Personal to edit and correct it or add notes. All changes will be seen only by you. Learn more »
launch autoscroll
font size
0
reset
guitar tuner
edit
Autoscroll
slow
fast
+/-
esc
set tempo
stop
Author
Difficulty
Sorry's Not Good Enough
Artist : MCFLY
Album : Motion In The Ocean
Tuning : Standard (EADG)
__________________________
¯¯¯¯¯¯¯¯¯¯¯¯¯¯¯¯¯¯¯¯¯¯¯¯¯¯

/ : Slide up
\ : Slide down


Intro (0:06)

G|-------------------------------------|
D|-------------5---4-------------------| 
A|--45---------------------------------|
E|-------45-------------2/10\2---------|


Verse (0:21)
(I can't stop, I can't stop loving you...)

G|-------------------------------------|
D|-----------7/97----------------------| 
A|-------5-------97-------5---0/554----|
E|--45-------------9--45---------------|


Bridge (0:35)

G|-------------------------------------|
D|-------------------------------------| 
A|--222022444044555055777542-----------|
E|-------------------------------------|

G|-------------------------------------|
D|-------------------------------------| 
A|--2220224440447-7-7542---------------|
E|---------------7-7-------------------|


Chorus (0:49)

G|-------------------------------------|
D|---442--77624------42----------------| 
A|--0---40-----4404---4550-0550-0------|
E|-----------------2------2----2-------|

G|-------------------------------------|
D|--2-2-220----------------------------| 
A|---------42--------------------------|
E|-------------------------------------|

G|-------------------------------------|
D|---442--77624------42----------------| 
A|--0---40-----4404---4550-0550-0------|
E|-----------------2------2----2-------|

G|-------------------------------------|
D|--55504222---------------------------| 
A|-------------------------------------|
E|-------------------------------------|


Bridge to the second Verse. (1:17)
 
G|-------------------------------------|
D|-------------------------------------| 
A|--45--------0------------------------|
E|-------45----23----------------------|


Verse (1:24)
(Don't stop, all those things you do...)

G|-------------------------------------|
D|-----------7/97-------2/7/9\7--------|  
A|-------5-------97-------------5-0/554|
E|--45-------------9--45---------------|


Bridge (1:37)

G|-------------------------------------|
D|-------------------------------------| 
A|--22202244404455505599997-7--77542---|
E|-------------------------7-7---------|


Chorus (1:48) 

G|-------------------------------------|
D|---442--77624------42----------------| 
A|--0---40-----4404---4550-0550-0------|
E|-----------------2------2----2-------|

G|-------------------------------------|
D|--2-2-220----------------------------| 
A|---------42--------------------------|
E|-------------------------------------|

G|-------------------------------------|
D|---442--77624------42----------------| 
A|--0---40-----4404---4550-0550-0------|
E|-----------------2------2----2-------|

G|-------------------------------------|
D|--55504222---------------------------| 
A|-------------------------------------|
E|-------------------------------------|


Next Part before the Piano Part. (2:16)

G|-------------------------------------|
D|--4--467119-6--2460------------------| 
A|----4---------2----43-3-9--9754555---|
E|---------------------3-3-99--------00|

Repeat the Intro here without the slide. (2:40)

G|-------------------------------------|
D|-------------5---4-------------------| 
A|--45---------------------------------|
E|-------45----------------------------|


Piano Part (Bass begin at 3:09)
(Don't Go Changing)

There's a long silence on the beginning
But the note begin went the drum is heard
more clearly. You must play from not loud to loud
The number of notes is not exact 
but you understand, eh? :)

G|-------------------------------------|
D|--777777777777777777777777777777777--| 
A|-------------------------------------|
E|-------------------------------------|

This Part Begin when Tom says de last 
"Changing"After de Guitar begin. (3:22)

G|-------------------------------------|
D|-------------------------------------|  You can add random notes 
A|---------------------------5-5-055-5-|   If you want to.
E|--12/745-5-055-5-2-2-022-2-----------| 

G|-------------------------------------|
D|-------------------------------------| 
A|--7--7--7542-------------------------|
E|----7--7-----------------------------|


Chorus (3:36)

G|-------------------------------------|
D|---442--77624------42----------------| 
A|--0---40-----4404---4550-0550-0------|
E|-----------------2------2----2-------|

G|-------------------------------------|
D|--2-2-220----------------------------| 
A|---------42--------------------------|
E|-------------------------------------|

G|-------------------------------------|
D|---442--77624------42----------------| 
A|--0---40-----4404---4550-0550-0------|
E|-----------------2------2----2-------|

G|-------------------------------------|
D|--55542224555422245-5-2--------------| 
A|-------------------------------------|
E|---------------------------45--------|


            
            
Suggest correction
Creating personal tab
Creating personal tab
You can edit any tab online and save it as your Personal.

You can edit, replace or remove any tab part or add personal notes – all changes will be seen only by you.

Personal tabs can be accessed anytime from any device, even offline.
Learn more »
comments
print report bad tab
3 comments total.
0 reply
noobboyy 41 Sep 05, 2008 02:08 AM

excellent! ((:

0 reply
lééti 597 Sep 10, 2008 10:06 AM

great tab (:
but please put some traces (-) between the numbers 'cause it gets hard to read...

0 reply
TommyGun91 903 Sep 30, 2008 07:43 AM

Awesome! :D

guest
You may want to rate the tab now too:
select rating
Wanna post a correction for this tab? Suggest correction