Oops, an error
Loading. Please wait.

The End tab

version 1
version 1

Whole song

by McFly
4,780 views 1 this week
1 commentread comment
1 2 3 4 5
x 3
add to favorites
×
Save as Personal and add changes to this tab that will be seen only by you. Learn more ›
×
You can save this tab as Personal to edit and correct it or add notes. All changes will be seen only by you. Learn more »
launch autoscroll
font size
0
reset
how to read this tab
guitar tuner
edit
Autoscroll
slow
fast
+/-
esc
set tempo
stop
Author
McFly
The End
Radio:ACTIVE Deluxe Edition
Tuning: Standart

INTRO
    G   D A  Em  G  D A  D
e|--------------------------|
B|--8\--7\2--0---8\-7\2--3--|
G|--------------------------|
D|--------------------------|
A|--------------------------|
E|--------------------------|

VERSE 1
D                  Dsus4/A
Kicking off is the hardest part 
G                 
Nothing's certain at the start 
        D      Dsus4/A          G
Letting go, so something can begin 

e|-------------|
B|-------------|
G|-------------|
D|--7-7-7p5-5--|
A|-------------|
E|-------------|

D                 Dsus4/A
Figure out how to get a life 
G
Leave tomorrow, live tonight 
      D      Dsus4/A                G
Gotta throw, throw your heart right in 
          Bm  A    G
'Cause we all fall down 

CHORUS
G         D         A
Everybody knows the end 
         Bm               G
When the curtain hits the floor 
G         D         A
Everybody knows the end 
            D                          G
Don't wanna get there wishing that you'd given more 
G               Bm              
It's not over, 'till it's over 
   D            G     G   D    
So how do we begin?
     A               Em      
When everybody knows the end 

     G  D A  D
e|--------------|
B|---8\-7\2--3--|
G|--------------|
D|--------------|
A|--------------|
E|--------------|

VERSE 2
  D                 Dsus4/A
I need to live with nothing fixed 
G
Don't tell me what's gonna happen next 
       D       Dsus4/A            G
I'm alright, I like the way this feels 
D                    Dsus4/A
Leave behind all the things I miss 
    G
The next stop isn't where you think it is 
          D         Dsus4/A        G
'Cause tonight I'm riding off the rails 
          Bm  A    G
'Cause we all fall down 

CHORUS
G         D         A
Everybody knows the end 
         Bm               G
When the curtain hits the floor 
G         D         A
Everybody knows the end 
            D                            G
Don't wanna get there wishing that you'd given more 
G               Bm              
It's not over, 'till it's over 
   D            G            
So how do we begin?

BRIDGE
G   D           A              Em
    Yeah, when everybody knows the end 
                      Bm
Is where you hope you never say 
   A
"I could have done it better"
Em                                   Bm
And I'm gonna keep what counts and throw away 
     A                           Em
What doesn't really matter and I wanna die (I wanna die)
        Bm       A
On the highest height (on the highest height)
G             
It's not over (it's not over) 
G
'Till it's over
  G
I wanna stay here forever 
                   G
'Cause we all fall down 

G  D  A

SOLO 
    D                       G
e|--------------------------------------|
B|--10-10-10-10-------------------------|
G|---------------11-11-9-9--9\7-9/11-7--|
D|--------------------------------------|
A|--------------------------------------|
E|--------------------------------------|    
                                            hold bend
    G     D    A    D                     G     | 
e|--------------------10--10--10--12--12--12b14-14-14-14r12p10-----|
B|--------8b10------10--10--10---------------------------------12\-|
G|--9b11-------7b9-------------------------------------------------|
D|-----------------------------------------------------------------|
A|-----------------------------------------------------------------|
E|-----------------------------------------------------------------|
 
CHORUS
G         D         A
Everybody knows the end 
         Bm               G
When the curtain hits the floor 
G         D         A
Everybody knows the end 
            D                            G
Don't wanna get there wishing that you'd given more 
G                               Bm           
It's not over (it's not over), 'till it's over 
   D            G        G     
So how do we begin?
D    A               Em   
When everybody knows the end

    Em                            G  D
e|--3-2--3-2----------------------------|
B|-----------3-0------------------------|
G|---------------2-0-----------------7--|
D|--------------------4-2-0--2-4--5--7--|
A|---------------------------2-4--5--5--|
E|---------------------------0-2--3-----|

A                   Em  
Everybody knows the end 

       hold bend
    Em    |                                     G    D    A    Bm
e|--12b14-14-14-14rp12----17b19r17-15p14-12-14--15~--14~--12~--10~-|
B|---------------------12------------------------------------------|
G|-----------------------------------------------------------------|
D|-----------------------------------------------------------------|
A|-----------------------------------------------------------------|
E|-----------------------------------------------------------------|

A               Bm
Everybody knows the end 

            
            
Suggest correction
Creating personal tab
Creating personal tab
You can edit any tab online and save it as your Personal.

You can edit, replace or remove any tab part or add personal notes – all changes will be seen only by you.

Personal tabs can be accessed anytime from any device, even offline.
Learn more »
Give kudos to tab author, rate the tab!
1 2 3 4 5
comments
print report bad tab
1 comment total.
0 reply
lilm23 31 Oct 06, 2011 05:43 AM

is this stundard tuning?? because everything seems right but the tuning

guest
You may want to rate the tab now too:
select rating
Wanna post a correction for this tab? Suggest correction