Oops, an error
Loading. Please wait.

Transylvania bass

version 4
version 4

Whole song

Interactive

by McFly
3,587 views 12 this week
no commentswrite comment
1 2 3 4 5
x 7
add to favorites
×
Save as Personal and add changes to this tab that will be seen only by you. Learn more ›
×
You can save this tab as Personal to edit and correct it or add notes. All changes will be seen only by you. Learn more »
launch autoscroll
font size
0
reset
guitar tuner
edit
Autoscroll
slow
fast
+/-
esc
set tempo
stop
Author
Song: Transylvania
Artist: McFly
Album: Motion in the Ocean
Bass Player: Dougie Poynter
Tuning: Standard

Tabbed By : posem21uk  


| /  slide up
| \  slide down
| h  hammer-on
| p  pull-off
| ~  vibrato
| +  harmonic
| x  Mute note


Intro/Verse (0:32)

G|-------------------------------------------------------|
D|-------------------------------------------------------|
A|----------------------------7------4-------------------|
E|-4------------4----------------------------6-----------|


Pre-Chorus (0:46)


G|-----------------------------------------------------------------------------|
D|-----------------------------------------------------------------------------|
A|--6-6--4-4------------6-6--4-4------------6-6--4-4------------6-6--4-4-------|
E|------------7-7--6-6------------7-7--6-6------------7-7--6-6------------7----|


Chorus (0:54)


G|------------------------------------------------------|
D|-6-9--6-6-9-----------------6------6------------------|
A|-------------6-9--6-6-9---7----7-7-------9------------|
E|--------------------------------------7----7--6-6-----|

G|----------------------------------------------------------|
D|-6-9--6-6-9-----------------------------------------------|
A|-------------6-9--6-6-9---9-12--9-9-12---2--4--6--2-4-2---|
E|----------------------------------------------------------|


Pre-Verse (1:09)

G|-----------------------------------------------------------------------------|
D|-----------------------------------------------------------------------------|
A|-7--------6-------6-4----------6----------6-7----------6---------6-6-6-6-----|
E|--------7--------------------7----------7------------7--------------------4--|


Verse (1:25)


G|----------------------------------------------------------|
D|----------------------------------------------------------|
A|--------------------------------------------4-------------|
E|-4-----4/11-----11/4------4/11-------0--------------6-----|


Pre-Chorus (1:38)


G|-------------------------------------------------------------------|
D|-------------------------------------------------------------------|
A|--6-6--4-4------------6-6--4-4------------6-6--4-4------------6----|
E|------------7-7--6-6------------7-7--6-6------------7-7--6-6-------|




Chorus (1:46)


G|------------------------------------------------------|
D|-6-9--6-6-9-----------------6------6------------------|
A|-------------6-9--6-6-9---7----7-7-------9------------|
E|--------------------------------------7----7--6-6-----|

G|----------------------------------------------------------|
D|-6-9--6-6-9-----------------------------------------------|
A|-------------6-9--6-6-9---9-12--9-9-12---2--4--6--2-4-2---|
E|----------------------------------------------------------|


Pre-Verse (2:01)


G|--------------------------------------------------------------------8-----|
D|------------------------------------------------------------------8-------|
A|-7------7-6------6-4--------4-6--------6-7------7-6-------6---6-6---------|
E|------7--------7--------4-4----------7--------7---------7--------------4--|


Guitar Solo (2:17)


G|------------------------------------------------------|
D|-6-9--6-6-9-----------------6------6------------------|
A|-------------6-9--6-6-9---7----7-7-------9------------|   x2 
E|--------------------------------------7----7--6-6-----|

G|------------------------------------------------------------------------|
D|------------------------------------------------------------------------|
A|-7------7-6------6-4------4-6--------6-7------7-6-------6---6-6-6-6-----|
E|------7--------7--------4----------7--------7---------7--------------4--|


Chorus (2:46)


G|------------------------------------------------------|
D|----------------------------6------6------------------|
A|-------------------6------7----7-7-------9------------|   
E|--------------------------------------7----7--6-6-----|

[The first part is just Dougie's vocal, that's why there is a gap at the beginning]

G|------------------------------------------------------------|
D|-6-9--6-6-9-----------------6------6------------------------|
A|-------------6-9--6-6-9---7----7-7-----2--4--6--2-4-2---7\--|    
E|------------------------------------------------------------|


Pre-Verse (3:01)         [Bass comes in at 3:16]


G|-------------------------------------------------------------------------------|
D|-------------------------------------------------------------------------------|
A|-7------7-6------6-4------4-6--------6-7------7-6-------6-4--------4-6------6--|
E|------7--------7--------4----------7--------7---------7----------4--------7----|


Outro (3:31)


G|----------------------------------------------------------------------------------|
D|----------------------------------------------------------------------------------|
A|-7------7-6-------6-4-------4-6------6-7---7-9-7--6------6-4--------4-6------4-6--|
E|----7-7-------7-7-------4-4--------7-----------------7-7--------4-4--------7------|


G|------------------------------------------------------------------6-6--8-8------|
D|---------------------------------------------------6-6--8-8--9-9------------9-9-|
A|-7------7-6-------6-4-------4-6------6---7-7--9-9-------------------------------|
E|----7-7-------7-7-------4-4--------7--------------------------------------------|


G|-8-8--8-8--8-8--8-8---8-8--6-6------------8-8--6-6------------8-8--6-6-------------|
D|--------------------------------9-9--8-8------------9-9--8-8------------9-9--8-8---|
A|-----------------------------------------------------------------------------------|
E|-----------------------------------------------------------------------------------|


End Note:


G|------||
D|------||
A|------||
E|--4---||

===============================================================================

            
            
Suggest correction
Creating personal tab
Creating personal tab
You can edit any tab online and save it as your Personal.

You can edit, replace or remove any tab part or add personal notes – all changes will be seen only by you.

Personal tabs can be accessed anytime from any device, even offline.
Learn more »
comments
print report bad tab
guest
You may want to rate the tab now too:
select rating
Wanna post a correction for this tab? Suggest correction