Oops, an error
Loading. Please wait.

Transylvania chords

version 5
version 5

Interactive

by McFly
7,494 views 1 this week
1 commentread comment
1 2 3 4 5
3 more votes to show rating
add to favorites
×
Save as Personal and add changes to this tab that will be seen only by you. Learn more ›
×
You can save this tab as Personal to edit and correct it or add notes. All changes will be seen only by you. Learn more »
launch autoscroll
font size
0
reset
transpose
0
reset
simplify chords
display chords
guitar tuner
edit
Autoscroll
slow
fast
+/-
esc
set tempo
stop
Author
Strumming
There is no strumming pattern for this song yet. and get +5 IQ
*UPDATED FEB 13th*
*C#m changed to C#
*NOTE: some people think this is easier with a capo on fret four.
*NOTE: All chords are higher-pitched Barre chords, refer to the key at the bottom
(Original Key: G#m--Key with Capo at fret four: Em)
Organ intro then,
Piano + vocals                                1st end    2nd end
E|-------------------------------------------|--------|----------|
B|-------------------------------------------|--------|----------|
G|---------6----------------6----------------|--------|----------|
D|-9-6-9-6---5-6-5--9-6-9-6---5-6-4----------|--------|----------|
A|----------------------------------7-9-7-6-4|-6-4-2-1|66-44-----|
E|-------------------------------------------|--------|-----77-66|
(no guitar)
Anne Boleyn she kept a tin,
Which all her hopes and dreams were in,
She plans to run away with him forever,
(Never to be seen again)
Leaves a note and starts to choke,
Can feel the lump that’s in her throat,
It's raining and she leaves her coat in silence.

We're sorry but we disagree,
The boy is vermin can't you see,
We'll drown his sins in misery,
Rip him out of history.

G#m                        D#m
People marching to the drums,
                            E           B F#
Everybodys having fun to the sound of love.
G#m                       D#m
Ugly is the world we're on,
                           E
If I'm right then prove me wrong,
B                                (C#)
I'm stunned (to find a place we belong).

(Acoustic/Clean Guitar Capo fret 4, regular chords)
C                        G
oooh oooh did you love her?
            Am
I couldn't tell,
                      G
When hell freezes over,
                    C
That's when I'll tell,
                           G
oooh oooh did you love her?
               B7
I couldn't tell,
                   Em
When will this stop?

(Piano and electric guitar playing a ‘foreshadow’ to the solo (I don't know what's going on!))
Racing, Pacing,
In the dark,
She's searching for a lonely heart,
She finds him but his heart had stopped,
She breaks down.

We're sorry but your majesty,
Refusing orders from the queen
Results in a monstrosity.
(Remembers a voice and hears him sing.)

G#m                      D#m
People marching to the drums,
                              E       B   F#
Everybody's having fun to the sound of love.
G#m                    D#m
Ugly is the world we're on,
                           E
If I'm right then prove me wrong,
B                                 (C#)
I'm stunned (to find a place we belong)

(Acoustic clean guitar capo fret 4, regular chords)
C            G
Who is your lover,
            Am
I couldn't tell,
                   G
When hell freezes over,
               C
That's when I tell,
              G
Who is your lover,
            B7
I couldn't tell,
                Em
When will this stop.

(Guitar Solo: thanks jiggy182):
e|----------------------------4-----------4---------4-----------------6-7-6-----|
B|--------------------------4---7p4-----4---7p4--------7b9-7b9-7b9--9-----------|
G|----------------------6b8---------6b8---------6b8-----------------------------|
D|-6~--6~-6~-6~-6~-6------------------------------------------------------------|
A|------------------------------------------------------------------------------|
E|------------------------------------------------------------------------------|

e|-7-7--6h7-9--7h9-9s11--9h11-11s12--11h12-12s14--12h14-14s16------16--18b19-18-18b19-|
B|--------------------------------------------------------------16-16-----------------|
G|------------------------------------------------------------------------------------|
D|------------------------------------------------------------------------------------|
A|------------------------------------------------------------------------------------|
E|------------------------------------------------------------------------------------|


Harmonizing Riff 2 guitars: (No capo-guitar 1 plays the bottom high E string notes on 
double stops while guitar 2 plays the B string in the pairs of notes)
e|-12--14-16-14-16-14--11--14-16-14-16-14--12--14-16-14-16-14--------------|
B|-12--16-17-16-17-16--12--16-17-16-17-16--14--16-17-16-17-16--12-------11-|
G|----------------------------------------------------------------11-13----|
D|-------------------------------------------------------------------------|
A|-------------------------------------------------------------------------|
E|-------------------------------------------------------------------------|

e|-12--14-16-14-16-14--11--14-16-14-16-14--------15-----/19~---------------|
B|-12--16-17-16-17-16--12--16-17-16-17-16--16-16----16---------------------|
G|-----------------------------------------15-15---------------------------|
D|-------------------------------------------------------------------------|
A|-------------------------------------------------------------------------|
E|-------------------------------------------------------------------------|


People marching to the drums,
                              E         B F#
Everybody's having fun to the sound of love.
G#m                    D#m
Ugly is the world we're on,
                           E
If I'm right then prove me wrong,
B                                  (C#)
I'm stunned (to find a place we belong)

and then the rest is just repeats:
oooh oooh did you love her?
I couldn't tell,
When hell freezes over,
That's when I'll tell,
(repeat 4 times)
People marching to the drums
oooh oooh did you love her?
I couldn't tell,
When hell freezes over,
That's when I'll tell,
People marching to the drums
oooh oooh did you love her?
I couldn't tell,
(tell)
(tell)
When will this stop!

Chords (EADGBe):
G#m:  x11.13.13.12.11
D#m:  11.13.13.11.11.11
E:    x7.9.9.9x
B:    7.9.9.8.7.7
F#:   x9.11.11.11.x
C#:  9.11.11.10.9.9

If anyone can hear what is going on in the verse (not chorus and post chorus) before the 
that would be great.

PLEASE RATE AND COMMENT!!!!!!!!

            
            
Suggest correction
Creating personal tab
Creating personal tab
You can edit any tab online and save it as your Personal.

You can edit, replace or remove any tab part or add personal notes – all changes will be seen only by you.

Personal tabs can be accessed anytime from any device, even offline.
Learn more »
Give kudos to tab author, rate the tab!
1 2 3 4 5
comments
print report bad tab
1 comment total.
0 reply
jdrk10 20 Jan 14, 2009 01:59 PM

Yeah, I totally screwed a lot of this up, and I forgot to give chord definations, so...

G#m = x(11)(13)(13)(12)(11)
D#m = (11)(13)(13)(11)(11)(11)
E = x7999x
B = 799877
F# = x(9)(11)(11)(11)x
C#m = (9)(11)(11)(9)(9)(9)
and those reading this chord sheet should know how to do the accoustic stuff...

guest
You may want to rate the tab now too:
select rating
Wanna post a correction for this tab? Suggest correction