Oops, an error
Loading. Please wait.

Umbrella tab

version 1
version 1

Whole song

Interactive

by McFly
17,210 views 1 this week
3 commentsread comments
1 2 3 4 5
x 4
add to favorites
×
Save as Personal and add changes to this tab that will be seen only by you. Learn more ›
×
You can save this tab as Personal to edit and correct it or add notes. All changes will be seen only by you. Learn more »
launch autoscroll
font size
0
reset
how to read this tab
guitar tuner
edit
Autoscroll
slow
fast
+/-
esc
set tempo
stop
Author
Heyy, so this is my first tab hope you enjoy playing this

Saw McFLY do it at Wolverhampton and thought id tab it, its my first tab so yeah its 
not perfect but its playable.

Enjoy! Questions and Comments my email/MSN is lukej1990@hotmail.com

UPDATED! - Changed a chord in the throughout, its now a fret higher!

* = Palm Mute

E:---|
B:---|
G:---|
D:-8-|
A:-8-|
E:-6-| i.e Bb can also be played like this for convenience 

E:---|
B:---|
G:-3-|
D:-3-|
A:-1-|
E:---|

[Intro]

E:-x-x-x-x-x-x-x-x--|
B:-x-x-x-x-x-x-x-x--|
G:-x-x-x-x-x-x-x-x--|
D:-x-x-x-x-x-x-x-x--|
A:-x-x-x-x-x-x-x-x--|
E:-x-x-x-x-x-x-x-x--| x2

[VERSE]
E:-----------------------------------------------------------------|
B:-----------------------------------------------------------------|
G:-----------------6666666666666666--------------------------------|
D:-4444444444444444666666666666666633333333333333338888888888888844|
A:-4444444444444444444444444444444433333333333333338888888888888844|
E:-2222222222222222----------------11111111111111116666666666666622|
   ****************************************************************

E:-----------------------------------------------------------------|
B:-----------------------------------------------------------------|
G:-----------------6666666666666666--------------------------------|
D:-4444444444444444666666666666666633333333333333338888888888888844|
A:-4444444444444444444444444444444433333333333333338888888888888844|
E:-2222222222222222----------------11111111111111116666666666666622|
   ********************************

[CHORUS]

E:------------------------------------------------------------------|
B:------------------------------------------------------------------|
G:---------66666666-------------------------66666666----------------|
D:-44444444666666663333333388888844-44444444666666663333333388888844|
A:-44444444444444443333333388888844-44444444444444443333333388888844|
E:-22222222--------1111111166666622-22222222--------1111111166666622|

E:-----------------------------------------------------------------|
B:-----------------------------------------------------------------|
G:-----------------6666666666666666--------------------------------|
D:-4444444444444444666666666666666633333333333333338888888888888844|
A:-4444444444444444444444444444444433333333333333338888888888888844|
E:-2222222222222222----------------11111111111111116666666666666622|
   ************************************************


[VERSE 2]

E:----------------------------------------------------------------|
B:----------------------------------------------------------------|
G:-----------------66--66--66--66---------------------------------|
D:-44--44--44--44--66--66--66--66--33--33--33--33--88--88--88--88-|
A:-44--44--44--44--44--44--44--44--33--33--33--33--88--88--88--88-|
E:-22--22--22--22------------------11--11--11--11--66--66--66--66-|

E:---------------------------------------------------------------|
B:---------------------------------------------------------------|
G:-----------------66--66--66--66--------------------------------|
D:-44--44--44--44--66--66--66--66--33--33--33--33--8---8---8---8-|
A:-44--44--44--44--44--44--44--44--33--33--33--33--8---8---8---8-|
E:-22--22--22--22------------------11--11--11--11--6---6---6---6-|


[CHORUS]

E:------------------------------------------------------------------|
B:------------------------------------------------------------------|
G:---------66666666-------------------------66666666----------------|
D:-44444444666666663333333388888844-44444444666666663333333388888844|
A:-44444444444444443333333388888844-44444444444444443333333388888844|
E:-22222222--------1111111166666622-22222222--------1111111166666622|

E:-----------------------------------------------------------------|
B:-----------------------------------------------------------------|
G:-----------------6666666666666666--------------------------------|
D:-4444444444444444666666666666666633333333333333338888888888888844|
A:-4444444444444444444444444444444433333333333333338888888888888844|
E:-2222222222222222----------------11111111111111116666666666666622|


[BRIDGE]

E:-------------------------------------------------------------------|
B:-------------------------------------------------------------------|
G:-4-----------------6--------4--------------------------------------|
D:-4--------4--------6--------4--------4--------3333333333333333---4-|
A:-2--------4--------4--------2--------4--------3333333333333333---4-|
E:----------2--------------------------2--------1111111111111111---2-|
                                                ****************
[CHORUS]

E:------------------------------------------------------------------|
B:------------------------------------------------------------------|
G:---------66666666-------------------------66666666----------------|
D:-44444444666666663333333388888844-44444444666666663333333388888844|
A:-44444444444444443333333388888844-44444444444444443333333388888844|
E:-22222222--------1111111166666622-22222222--------1111111166666622|

E:-----------------------------------------------------------------|
B:-----------------------------------------------------------------|
G:-----------------6666666666666666--------------------------------|
D:-4444444444444444666666666666666633333333333333338888888888888844|
A:-4444444444444444444444444444444433333333333333338888888888888844|
E:-2222222222222222----------------11111111111111116666666666666622|

[ENDING]

E:------------------------------------------------------------------|
B:------------------------------------------------------------------|
G:---------66666666-------------------------66666666----------------|
D:-44444444666666663333333388888844-44444444666666663333333388888844|
A:-44444444444444443333333388888844-44444444444444443333333388888844|
E:-22222222--------1111111166666622-22222222--------1111111166666622|

E:-----------------------------------------------------------------|
B:-----------------------------------------------------------------|
G:-----------------6666666666666666--------------------------------|
D:-4444444444444444666666666666666633333333333333338888888888888844|
A:-4444444444444444444444444444444433333333333333338888888888888844|
E:-2222222222222222----------------11111111111111116666666666666622|

            
            
Suggest correction
Creating personal tab
Creating personal tab
You can edit any tab online and save it as your Personal.

You can edit, replace or remove any tab part or add personal notes – all changes will be seen only by you.

Personal tabs can be accessed anytime from any device, even offline.
Learn more »
comments
print report bad tab
3 comments total.
0 reply
*Tasha* 80 Oct 09, 2007 10:56 AM

hey its good but instead in the verse it should be
E:-----------------------------------------------------------------|
B:-----------------------------------------------------------------|
G:-----------------6666666666666666--------------------------------|
D:-4444444444444444666666666666666633333333333333338888888888888844
A:-4444444444444444444444444444444433333333333333338888888888888844
E:-2222222222222222----------------11111111111111116666666666666622
****************************************************************

well i think thats right lol xx

0 reply
sicpuppy 181 Oct 10, 2007 02:27 AM

I guess it kinda does make sense, also, anyone reading the tab the * means palm mute :)

0 reply
sicpuppy 181 Oct 10, 2007 02:29 AM

Also, in the bridge its just the 3 that need to be palm muted, it turned out a bit wrong! 3
1

guest
You may want to rate the tab now too:
select rating
Wanna post a correction for this tab? Suggest correction