Oops, an error
Loading. Please wait.

Dont Cry For Me Argentina tab

7,889 views 3 this week
1 commentread comment
1 2 3 4 5
1 last vote to show rating
add to favorites
×
Save as Personal and add changes to this tab that will be seen only by you. Learn more ›
×
You can save this tab as Personal to edit and correct it or add notes. All changes will be seen only by you. Learn more »
launch autoscroll
font size
0
reset
how to read this tab
guitar tuner
edit
Autoscroll
slow
fast
+/-
esc
set tempo
stop
Artist/band: Me first and the gimme gimmes
Song: Don't cry for me Argentina
Tabbed out by: Daniel McDougall
E-mail: ur_such_a_bore@hotmail.com

Key

  >  =  keep strumming (listen to the song for the length of strumming)
  P. =  Palm mute

Intro:

e|-------------------------|
b|-------------------------|
g|--7-7-77-----------------|
d|--7-7-77->--7--4--5------|
a|--5-5-55----7--4--5-hold-|
E|------------5--2--3------|

Verse: part 1

e|------------------------------------| 
b|------------------------------------| Straight after u have played this,
g|-----------------------7-7----------| go right into the intro but dont 
d|-2-2-----7-7----5-5----5-5->--7-7---| hold the last chord. and then go 
a|-2-2->>--7-7->--5-5->--5-5----7-7->-| straight into the chorus.
E|-0-0-----5-5----3-3-----------5-5---|
     P.      P.     P.     P.     P.

Chorus:

e|-----------------------------------|
b|-----------------------------------|
g|---------7----5---------5--5-------|
d|--5------7->--5->--5----5--5-hold--|
a|--5->>>--5----3----5->--3--3-------|
E|--3----------------3---------------|

Verse: part 2 

e|-----------------------------------|
b|-----------------------------------| Then play the verse:part 1 BUT, without
g|---------5-5----7-7----------------| the palm muting.
d|--5-5----5-5->--7-7->--5-5-----4---| and then  
a|--5-5->--3-3----5-5----5-5->>--4->-|         |
E|--3-3------------------3-3-----2---|         | 
      P.     P.     P.     P.    P.            | 
                                               |
  |-INTRO <------------------------------------

  |-CHORUS

Middle 8:

e|--------------------------------------------------|
b|--------------------------------------------------|
g|-------7--------9----------7----------7-77--5-----|
d|--7----7->-5----9->---7----7->--5-55--7-77--5->---|
a|--7->--5---5->--7-----7->--5----5-55--5-55--3-----|
E|--5--------3----------5---------3-33--------------|


   |-CHORUS


Outro: 
e|-----------------|
b|-----------------| Play the outro straight after the chorus.
g|-------5--5------|
d|--5----5--5-hold-|
a|--5->--3--3------|
E|--3--------------|

            
            
Suggest correction
Creating personal tab
Creating personal tab
You can edit any tab online and save it as your Personal.

You can edit, replace or remove any tab part or add personal notes – all changes will be seen only by you.

Personal tabs can be accessed anytime from any device, even offline.
Learn more »
Give kudos to tab author, rate the tab!
1 2 3 4 5
comments
print report bad tab
1 comment total.
0 reply
M3t4lb4st4rd 150 Aug 12, 2010 11:45 AM

Hey very good tab.

but i think that the intro is

e|-------------------------|
b|-------------------------|
g|--7-7-54-----------------|
d|--7-7-54->--7--4--5------|
a|--5-5-32----7--4--5-hold-|
E|------------5--2--3------|

and there is a bridge in it its played:

e|-------------------------|
b|-------------------------|
g|--7-7-54-----------------|
d|--7-7-54->--7--4--5------|
a|--5-5-32----7--4--5------|
E|------------5--2--3------|

i think. Correct me if i am wrong.

But the whole tab is very good :)

guest
Wanna post a correction for this tab? Suggest correction