Oops, an error
Loading. Please wait.

Goodbye Earl tab

9,838 views 3 this week
1 commentread comment
1 2 3 4 5
x 4
add to favorites
×
Save as Personal and add changes to this tab that will be seen only by you. Learn more ›
×
You can save this tab as Personal to edit and correct it or add notes. All changes will be seen only by you. Learn more »
launch autoscroll
font size
0
reset
how to read this tab
guitar tuner
edit
Autoscroll
slow
fast
+/-
esc
set tempo
stop
Author
Difficulty
Goodbye Earl

Intro - palm muted
$= many times
e-----|
b-----|
g---$-|
d--7--|
a--7--|
E--5--|


verse - 3 palm
      - 1 clean

*=8 times  &=4 times
e-------------|
b-------*----*|
g---*-7---*-9-|
d--7--7--7--9-|
a--7--5--7--7-|
E--5-----5----|

e----------------|
b------*---------|
g---*-7---&-----*|
d--7--7--7---&-7-|
a--7--5--7--7--7-|
E--5-----5--4--5-|


Pre chorus x 2 second time without last note played once.
e-------------|
b------&------|
g---&-9---&--&|
d--7--9--7--7-|
a--7--7--7--7-|
E--5-----5--5-|

Chorus x2
e----------------|
b------&-----*--*|
g---*-7---&-9--7-|
d--7--7--7--9--7-|
a--7--5--7--7--5-|
E--5-----5-------|

Intro  - clean

Verse  - x2 palm
       - x2 clean

Pre chorus 2- I cant work out what hes playing here
             at the end he plays the intro chord to
              to build up into the chorus.

Chorus - x4

End on

e-----|
b-----|
g-----|
d--7--|
a--7--|
E--5--|


Pigeon!

            
            
Suggest correction
Creating personal tab
Creating personal tab
You can edit any tab online and save it as your Personal.

You can edit, replace or remove any tab part or add personal notes – all changes will be seen only by you.

Personal tabs can be accessed anytime from any device, even offline.
Learn more »
comments
print report bad tab
1 comment total.
0 reply
xDarkxstarx 10 Mar 04, 2016 10:23 AM

I think the pre-chorus might be: What it sounds like, kind of hard to catch it
e------------------------------|
b------------------------------|
g-11--9--7--------11--9--7--9--|
d-11--9--7--7-----11--9--7--9--|
a-9---7--5--7-----9---7--5--7--|
E-----------5------------------|

The part that has "run away Mary Ann"

guest
You may want to rate the tab now too:
select rating
Wanna post a correction for this tab? Suggest correction