Oops, an error
Loading. Please wait.

Uptown Girl tab

version 2
version 2

Whole song

Interactive

1,375 views 3 this week
3 commentsread comments
1 2 3 4 5
2 more votes to show rating
add to favorites
×
Save as Personal and add changes to this tab that will be seen only by you. Learn more ›
×
You can save this tab as Personal to edit and correct it or add notes. All changes will be seen only by you. Learn more »
launch autoscroll
font size
0
reset
how to read this tab
guitar tuner
edit
Autoscroll
slow
fast
+/-
esc
set tempo
stop
Author
Difficulty
Standard tuning, this should hopefully be the right way to play it.

Intro/verse/chorus
|---------------|---------------------|
|---------------|---------------------|
|---------------|---------------------|
|---------------|-222--444--666--7-9--|    X 4
|---------------|-222--444--666--7-9--|
|--(pickslide)--|-000--222--444--5-7--|

"And when she knows what"       "She'll see I'm not so tough"

|------------------------|      |-------------------------|
|------------------------|      |-------------------------|
|----555-------777-------|  X 2 |-----555-----------------|    (pre-chorus)
|----555--777--777--555--|      |-----555--555--777--999--|
|----333--777--555--555--|      |-----333--555--777--999--|
|---------555-------333--|      |----------333--555--777--|

"uptown girl" 
|---------------------|
|---------------------|
|---------------------|
|-222--444--666--7-9--|    X 2    (chorus)
|-222--444--666--7-9--|
|-000--222--444--5-7--|

"ooooooooooohOOOOOOOH"  (bridge)

|---------------------|
|---------------------|
|---------------------|
|-555--777--888--9-7--|    X 2
|-555--777--888--9-7--|
|-333--555--666--7-5--|


then...

Verse

Pre Chorus

Chorus

Bridge

Chorus


and thats it, if you have any problems email me at nath_robo@hotmail.com

            
            
Suggest correction
Creating personal tab
Creating personal tab
You can edit any tab online and save it as your Personal.

You can edit, replace or remove any tab part or add personal notes – all changes will be seen only by you.

Personal tabs can be accessed anytime from any device, even offline.
Learn more »
Give kudos to tab author, rate the tab!
1 2 3 4 5
comments
print report bad tab
3 comments total.
0 reply
Pandecaja 32 Aug 15, 2014 08:17 AM, edited at 12:18 pm

This is what I hear
"And when she knows what" |------------------------|-------------------------||------------------------|-------------------------||----555-------777-------|-----555-----------------||----555--777--777--555--|-----555--777--999--222--||----333--777--555--555--|-----333--777--888--222--||---------555-------333--|----------555--777--000--|
"She'll see I'm not so tough"|-------------------------||-------------------------||-----222-------444--888--| (pre-chorus)|-----222--444--444--777--||-----000--444--222--666--||----------222------------|"ooooooooooohOOOOOOOH" (bridge)|---------------------||---------------------||---------------------||-555--777--888--9-7--| X 2|-555--777--777--9-7--||-333--555--666--7-5--|

0 reply
Pandecaja 32 Aug 15, 2014 08:26 AM

I'm sorry, I tried to post a correction and it came out as a comment.
I was trying to figure out the chords... in the recording I hear some diminished chords. I've searched everywhere and found nothing.
I'll try submitting the correction again.

0 reply
Pandecaja 32 Aug 15, 2014 08:31 AM

This is what I hear

"And when she knows what"

|------------------------|-------------------------|
|------------------------|-------------------------|
|----555-------777-------|-----555-----------------|
|----555--777--777--555--|-----555--777--999--222--|
|----333--777--555--555--|-----333--777--888--222--|
|---------555-------333--|----------555--777--000--|

"She'll see I'm not so tough"

|-------------------------|
|-------------------------|
|-----222-------444--888--| (pre-chorus)
|-----222--444--444--777--|
|-----000--444--222--666--|
|----------222------------|

"ooooooooooohOOOOOOOH" (bridge)

|---------------------|
|---------------------|
|---------------------|
|-555--777--888--9-7--| X 2
|-555--777--777--9-7--|
|-333--555--666--7-5--|

guest
You may want to rate the tab now too:
select rating
Wanna post a correction for this tab? Suggest correction