Oops, an error
Loading. Please wait.

Where Do Broken Hearts Go tab

version 1
version 1

Whole song

Interactive

13,628 views 9 this week
no commentswrite comment
1 2 3 4 5
1 last vote to show rating
add to favorites
×
Save as Personal and add changes to this tab that will be seen only by you. Learn more ›
×
You can save this tab as Personal to edit and correct it or add notes. All changes will be seen only by you. Learn more »
launch autoscroll
font size
0
reset
how to read this tab
guitar tuner
edit
Autoscroll
slow
fast
+/-
esc
set tempo
stop
Author
INTRO (RYTHYM SAME AS VERSES)    
e|---------------------------------------------------------------------------|
B|---------------------------------------------------------------------------|
G|---55--555--555--555--555--555--555--555-----------------------------------|
D|---55--555--555--555--555--555--555--555-----------------------------------|
A|---33--333--333--333--333--333--333--333-----------------------------------|
E|---------------------------------------------------------------------------|

      VERSE 
e|---------------------------------------------------------------------------|
B|------------------------------------------11--111--111---------------------|
G|---55-----555------555--------555---------22--222--222---------------------|
D|---55-----555------555--------555---------22--222--222---------------------|
A|---33-----333------333--------222---------00--000--000----------55---------|
E|----------------------------------------------------------------33---------|
   "I know it's been some time ,  but there's somethin on my mind..."    

e|---------------------------------------------------------------------------|
B|---------------------------------------------------------------------------|
G|---77---777---777---777----------------------------------------------------|
D|---77---777---777---777-----55--555--555--555------------------------------|
A|---55---555---555---555-----55--555--555--555------------------------------|
E|----------------------------33--333--333--333------------------------------|
  "I haven't been the same, since that cold november day..."  

  (REPEAT VERSE)
 
   PRE-CHORUS  
e|--------------------1------------------------------------------------------|
B|------------1-------3------------------------------------------------------|
G|-----0------2-------2--------------4-----------12--12--12--12--12----------|
D|-----2------2-------0--------------5-----------12--12--12--12--12----------|
A|-----2------0----------------------5-----------10--10--10--10--10----------|
E|-----0-----------------------------3---------------------------------------|
   "so here I am, and can you please tell me....."  

   Chorus
e|---------------------------------------------------------------------------|
B|---------------------------------------------------------------------------|
G|--5---------------------------------------------5--------------------------|
D|--5---------------5--------3--------------------5--------------------------|
A|--3---------------5--------3--------------------3--------------------------|
E|------------------3--------1-----------------------------------------------| 
   "where do broken hearts go, can they find their way home..." 

e|---------------------------------------------------------------------------|
B|---------------------------------------------------------------------------|
G|-------------------------------7------------------4------------------------|
D|--3------------3---------------7------------------5------------------------|
A|--3------------3---------------5------------------5------------------------|
E|--1------------0----------------------------------3------------------------|
    "back to the open arms, of a love that's waitin' there..." (REPEAT CHORUS)

   REPEAT INTR0
   REPEAT VERSE(PALM MUTE CHORDS)
   REPEAT CHORUS

   Bridge(into key change) 
e|---------------------------------------------------------------------------|
B|---------------------------------------------------------------------------|
G|--5--3-5------------------------------7-------------------5----------------|
D|--5--3-5---3------------3-------------7-----------5-------5----------------|
A|--3--1-3---3------------3-------------5-----------5-------3----------------|
E|-----------1------------0-------------------------3------------------------|  
    ........"now that I'm here with you, I'll never let you go... 

e|---------------------------------------------------------------------------|
B|---------------------------------------------------------------------------|
G|----5--------------8---------10-------------13-----------------------------|
D|----6--------------8---------10-------------13-----------------------------|
A|----6--------------6----------8-------------11-----------------------------|
E|----4----------------------------------------------------------------------| 
   "I look into your eyes now I know,   now I know..."  

   Chorus 
e|---------------------------------------------------------------------------|
B|---------------------------------------------------------------------------|
G|---6---------------------------------------------6-------------------------|
D|---6-------------6----------4--------------------6-------------------------|
A|---4-------------6----------4--------------------4-------------------------|
E|-----------------4----------2----------------------------------------------|
   "where do broken hearts go, can they find their way home...

e|---------------------------------------------------------------------------|
B|---------------------------------------------------------------------------|
G|------------------------------8--------------------------------------------|
D|--4------------4--------------8-------------------6------------------------|
A|--4------------4--------------6-------------------6------------------------|
E|--2------------1----------------------------------4------------------------|
   "back to the open arms, of a love that's waiting there...

   REPEAT CHORUS

   OUTRO
e|----------------------11-111-111-------------------------------------------|
B|----------------------22-222-222-------------------------------------------|
G|-----66-666-666--666--33-333-333--55--88-888-55-555--66-666-666------------|
D|-----66-666-666--666--33-333-333--66--88-888-66-666--66-666-666------------|
A|-----44-444-444--333--11-111-111--66--66-666-66-666--44-444-444------------|
E|----------------------------------44---------44 444------------------------|
  "for me...                     ...for me...           ...........YEAH!!!

            
            
Suggest correction
Creating personal tab
Creating personal tab
You can edit any tab online and save it as your Personal.

You can edit, replace or remove any tab part or add personal notes – all changes will be seen only by you.

Personal tabs can be accessed anytime from any device, even offline.
Learn more »
Give kudos to tab author, rate the tab!
1 2 3 4 5
comments
print report bad tab
guest
You may want to rate the tab now too:
select rating
Wanna post a correction for this tab? Suggest correction