Oops, an error
Loading. Please wait.

Backwater bass

version 1
version 1

Whole song

Interactive

5,482 views 6 this week
1 commentread comment
1 2 3 4 5
x 4
add to favorites
×
Save as Personal and add changes to this tab that will be seen only by you. Learn more ›
×
You can save this tab as Personal to edit and correct it or add notes. All changes will be seen only by you. Learn more »
launch autoscroll
font size
0
reset
guitar tuner
backing track
0:00
0:00
edit
Autoscroll
slow
fast
+/-
esc
set tempo
stop
Author
-------------------------------------------------------------------------------
			    Backwater  - Meat Puppets
-------------------------------------------------------------------------------

Tabbed By : James Ryan
http://world-according-to-jim.blogspot.com/

Tuning: Standard

INTRO - PLAY CHORUS

VERSE
G|------------------------------------------------------------|
D|------------------------------------------------------------|
A|-------------------------3-3--3333--------------------------|
E|--0-0--0000---2-2--2222-------------0-0--0000---------------|

CHOURS
G|------------------------------------------------------------|
D|------------------------------------------------------------|
A|----------------2-4-4-4-4--3-3-3-3-3-3-3-5-5-5-5-5-5-5------|
E|--0-0-LET RING----------------------------------------------|X2

BRIDGE
G|-----------------|  |----------------------------------------------------------|
D|-----------------|  |----------------------------------------------------------|
A|-----------------|  |-----------------------------3-3-3-3-3-3-3-5-5-5-5-5-5-5--|
E|-1-1-1-1-3-3-3-3-|X1|-5-5-5-5-5-5-5-0-0-0-0-0-0-0------------------------------|X2

SOLO - PLAY CHORUS

END - PLAY CHORUS THEN END ON E


THAT'S ALL


            
            
Suggest correction
Creating personal tab
Creating personal tab
You can edit any tab online and save it as your Personal.

You can edit, replace or remove any tab part or add personal notes – all changes will be seen only by you.

Personal tabs can be accessed anytime from any device, even offline.
Learn more »
comments
print report bad tab
1 comment total.
0 reply
Sp00nman94 176 Jul 16, 2008 03:26 PM

good tab...really easy (but awesome) song tho

guest
You may want to rate the tab now too:
select rating
Wanna post a correction for this tab? Suggest correction