Oops, an error
Loading. Please wait.

Scum bass

316 views 3 this week
no commentswrite comment
1 2 3 4 5
3 more votes to show rating
add to favorites
×
Save as Personal and add changes to this tab that will be seen only by you. Learn more ›
×
You can save this tab as Personal to edit and correct it or add notes. All changes will be seen only by you. Learn more »
launch autoscroll
font size
0
reset
guitar tuner
edit
Autoscroll
slow
fast
+/-
esc
set tempo
stop
Author
                              Scum
                          by: Meat Puppets

This is my favorite meat puppets song
Finnally glad to get a bass tab out for it

intro
G|--------------------------------------------------------------------------||
D|--------------------------------------------------------------------------||
A|------------3-------------------------------------------------------------||
D|---0--3--4-----3--2--0----------------------------------------------------||
----------------------------------------------------------------------------||
verse

G|------------------|
D|------------------|
A|------------------|
E|--0---2--3--4--0--|

----------------------------------------------------------------------------
chorus

G|----------------------------||
D|----------------------------||
A|------------5--3--0---------||
D|---0--3--4----------3-------||

----------------------------------------------------------------------------
                               Lyrics

In some forgettable rhyme
We crawled across the border line
We kissed the enemy till
I thought we traveled out of time
You couldn't have heard me speak
There was, so it did seem, I say
A fog so heavy that I
Could not tell if it was night or day
Hand over all water
You know that means business
Scum
Under the stone
We find the scum
Under the stars
We find the scum
I thought a beautiful thing
A fire was lit within my mind
On ruby hummingbird wings
Went shivering up and down my spine
The water that quit our thirst
Was not from earthly vineyards mined
And then we drunkenly sailed
The gutter of our invisible shrines

            
            
Suggest correction
Creating personal tab
Creating personal tab
You can edit any tab online and save it as your Personal.

You can edit, replace or remove any tab part or add personal notes – all changes will be seen only by you.

Personal tabs can be accessed anytime from any device, even offline.
Learn more »
Give kudos to tab author, rate the tab!
1 2 3 4 5
comments
print report bad tab
guest
You may want to rate the tab now too:
select rating
Wanna post a correction for this tab? Suggest correction