Oops, an error
Loading. Please wait.

Todo Tiene Su Fin tab

version 2
version 2

Whole song

520 views 3 this week
no commentswrite comment
1 2 3 4 5
3 more votes to show rating
add to favorites
×
Save as Personal and add changes to this tab that will be seen only by you. Learn more ›
×
You can save this tab as Personal to edit and correct it or add notes. All changes will be seen only by you. Learn more »
launch autoscroll
font size
0
reset
how to read this tab
guitar tuner
edit
Autoscroll
slow
fast
+/-
esc
set tempo
stop
Esta tablatura la he sacado de un vídeo de una
actuación en un programa de televisión (disco MEDINA AZAHARA,
25 AÑOS) en la cual se ve perfectamente a Paco Ventura tocando
el solo inicial, por eso no creo que tenga errores.

Se trata de la versión de estudio, que difiere un poco de
la del directo. Si alguien quiere la canción me podeis enviar
un e-mail para que os la mande.

Es la primera tablatura que saco. Espero que os guste.

e----------------------------------16-18-19~~--19--18-----------|
B----16~~~~--14-16-17~--16-14-14~----------------------16~~~~---|
G---------------------------------------------------------------|
D---------------------------------------------------------------|
A---------------------------------------------------------------|
E---------------------------------------------------------------|

e-------------------------------------16-18-19~~--21~~~-21^-----||
B----19^--19-17-16-17-19-19~--21-19~----------------------------||
G---------------------------------------------------------------||
D---------------------------------------------------------------||
A---------------------------------------------------------------||
E---------------------------------------------------------------||

~ = vibrato (se utiliza la palanca de trémolo)
^ = bending

El solo está tono y medio mas grave de cómo lo toca Paco Ventura.
La guitarra con la que tocaba él tenía 24 trastes (utilizaba
hasta el traste nº24) y la guitarra convencional tiene 21,
por eso he decidido dejarlo así.

El amplificador debe estar en tono limpio y con reverberación.

            
            
Suggest correction
Creating personal tab
Creating personal tab
You can edit any tab online and save it as your Personal.

You can edit, replace or remove any tab part or add personal notes – all changes will be seen only by you.

Personal tabs can be accessed anytime from any device, even offline.
Learn more »
Give kudos to tab author, rate the tab!
1 2 3 4 5
comments
print report bad tab
guest
Wanna post a correction for this tab? Suggest correction