Oops, an error
Loading. Please wait.

Clover bass

1,262 views 1 this week
no commentswrite comment
1 2 3 4 5
3 more votes to show rating
add to favorites
×
Save as Personal and add changes to this tab that will be seen only by you. Learn more ›
×
You can save this tab as Personal to edit and correct it or add notes. All changes will be seen only by you. Learn more »
launch autoscroll
font size
0
reset
guitar tuner
edit
Autoscroll
slow
fast
+/-
esc
set tempo
stop
Author
Difficulty
This is my transcription that I did by ear of Meg Rock's song "Clover" from the anime Solty Rei.

Made by J. Montefalcon


LEGEND
---------
/ - slide up
\ - slide down

G|----------------|----------------|----------------|----------------|
D|----------------|----------------|----------------|--------8-8-----|
A|6-6-6-6/8-8-8-8-|--------------5-|3-3-3-3/8-8-8-8-|1-1-1-1-----5-5-|
E|----------------|3-3-3-3-3-5-6---|----------------|----------------|
  1 + 2 + 3 + 4 +  1 + 2 + 3 + 4 +  1 + 2 + 3 + 4 +  1 + 2 + 3 + 4 +

G|----------------|----------------|----------------|-------------------|
D|----------------|----------------|----------------|-------------------|
A|6-6-6-6/8-8-8-8-|------5---5---5-|6-6---6-8-8-8-8-|---5--10---10-10---|
E|----------------|3-5-6-------6---|----6-----------|3------------------|
  1 + 2 + 3 + 4 +  1 + 2 +   + 4 +  1 + 2 + 3 + 4 +  1  a  +  3 +  4  +

G|----------------|----------------|----------------|----------------|
D|----------------|----------------|----------------|----------------|
A|----------------|6-6-6-6-6-6-6-6-|4-4-4-4-4-4-4-4-|2-2-2-2-2-2-2-1-|
E|----------------|----------------|----------------|----------------|
                   1 + 2 + 3 + 4 +  1 + 2 + 3 + 4 +  1 + 2 + 3 + 4 + 

G|----------------|----------------|----------------|----------------|
D|----------------|----------------|----------------|----------------|
A|2-2-2-4---4-4-4-|6-6-6-6-6-6-6-6-|4-4-4-4-4-4-4-4-|2-2-2-2-2-2-2-2-|
E|----------------|----------------|----------------|----------------|
  1 + 2 +   + 4 +  1 + 2 + 3 + 4 +  1 + 2 + 3 + 4 +  1 + 2 + 3 + 4 + 

G|----------------|----------------|----------------|----------------|
D|8-8-------------|----------------|----------------|----------------|
A|----------------|6-6-6-6-6-6-6-6-|4-4-4-4-4-4-4-4-|2-2-2-2-2-2-2-1-|
E|------6---6-6-6-|----------------|----------------|----------------|
  1 +   +   + 4 +  1 + 2 + 3 + 4 +  1 + 2 + 3 + 4 +  1 + 2 + 3 + 4 + 

G|----------------|----------------|----------------|----------------|
D|----------------|----------------|--------6-6-----|----------------|
A|2-2-2-4---4---4-|6-6-6-6-6-6-6-6-|4-4-4-4-----4-4-|2-2-2-2-2---2-4-|
E|------------4---|----------------|----------------|----------2-----|
  1 + 2 +   + 4 +  1 + 2 + 3 + 4 +  1 + 2 + 3 + 4 +  1 + 2 + 3 + 4 + 

G|----------------|----------------|----------------|----------------|
D|--------8-8-6-6-|------8---8-----|------6---6-----|------------6-6-|
A|5---------------|6-6---------6-6-|4-4-------------|4-4---7---7-----|
E|--6-6-----------|----------------|------------4-4-|----------------|
  1 + 2   3 + 4 +  1 +   +   + 4 +  1 +   +   + 4 +  1 +   +   + 4 +

G|----4-----------|----------------|----------------|----------------|
D|----------------|----------------|------------8-8-|----------------|
A|2-2---2-2-4---6-|------------6-6-|------8---8-----|7-7---------7---|
E|----------------|------6---6-----|6-6-------------|------7---7---7-|
  1 + 2 + 3 +   +    +   +   + 4 +  1 +   +   + 4 +  1 +   +   + 4 +

G|----------------|----------------|----------------|----------------|
D|----------------|----------------|----------------|--------4-7-4---|
A|6-6---1---1---2-|----2---2---2---|4-4---------4-4-|5-5-5-5-------5-|
E|----------------|--2---2---2---2-|----1-1-4-4-----|----------------|
  1 +   +   +   +    + 2 + 3 + 4 +  1 + 2 + 3 + 4 +  1 + 2 + 3 + 4 +

G|--------------------|-----This-----|
D|--------14-14-14-14-|--Measure-is--| <-----REST HERE!!!
A|7-7-7-7-------------|----in 2/4----|
E|--------------------|-----Time-----|
  1 + 2 + 3  +  4  +

G|----------------|----------------|----------------|----------------|
D|----------------|----------------|----------------|--------8-8-----|
A|6-6-6-6/8-8-8-8-|------------5-5-|3-3-3-3/8-8-8-8-|1-1-1-1-----5-5-|
E|----------------|3-3-5-5-6-6-----|----------------|----------------|
  1 + 2 + 3 + 4 +  1 + 2 + 3 + 4 +  1 + 2 + 3 + 4 +  1 + 2 + 3 + 4 +
                 
G|----------------|----------------|----------------|-------------------|
D|----------------|----------------|----------------|-------------------|
A|6-6-6-6/8-8-8-8-|------5---5---5-|6-6---6-8-8-8-8-|---5--10---10-10---|
E|----------------|3-5-6-------6---|----6-----------|3------------------|
  1 + 2 + 3 + 4 +  1 + 2 +   + 4 +  1 + 2 + 3 + 4 +  1  a  +  3 +  4  +


G|----------------|----------------|----------------|----------------|
D|----------------|----------------|----------------|--------8-8-----|
A|6-6-6-6---------|------------5-5-|3-3-3-3/8-8-8-8-|1-1-1-1-----5-5-|
E|--------1-1-1-1-|3-3-5-5-6-6-----|----------------|----------------|
  1 + 2 + 3 + 4 +  1 + 2 + 3 + 4 +  1 + 2 + 3 + 4 +  1 + 2 + 3 + 4 +

G|----------------|----------------|----------------|---------------------|
D|----------------|----------------|----------------|---------------------|
A|6-6-6-6/8-8-8-8-|------5---5---5-|6-6---6-8-8-8-8-|10--15--14---10-10---|
E|----------------|3-5-6-------6---|----6-----------|---------------------|
  1 + 2 + 3 + 4 +  1 + 2 +   + 4 +  1 + 2 + 3 + 4 +  1   a   +    +  4    

G|----------------|---------------|----------------|----------------|
D|----------------|---------------|----------------|----------------|
A|6-6---6-8-8-8-8-|---------------|--5-4-3-----3---|--3-2-1-----1---|
E|----6-----------|2-2---------4--|3---------3-----|1---------1-----|
  1 + 2 + 3 + 4 +  1 + 2 + 3 + 4 + 1 + 2 +   + 4    1 + 2 +   + 4 

G|----------------|----------------|----------------|----------------|
D|----------------|----------------|----------------|----------------|
A|6-6-6-6-6-6-6-6-|4-4-4-4-4-4-4-4-|2-2-2-2-2-2-2-1-|2-2-2-4---4---4-|
E|----------------|----------------|----------------|------------4---|
  1 + 2 + 3 + 4 +  1 + 2 + 3 + 4 +  1 + 2 + 3 + 4 +  1 + 2 +   + 4 +  

G|----------------|----------------|----------------|----------------|
D|------------8---|------------8---|----------------|--------8-8-6-6-|
A|6-6-6-6-6-9---9-|4-4-4-4-4-9---9-|2-2-2-2-2---2-4-|5---------------|
E|----------------|----------------|----------2-----|--6-6-----------|

G|----------------|-----------------|----------------|----4-----------|
D|------8---8-----|------6/8--6-----|------------6-6-|----------------|
A|6-6---------6-6-|4-4----------6---|4-4---7---7-----|2-2---2-2-4---6-|
E|----------------|-----------------|----------------|----------------|
 1 +   +   + 4 +   1 +    +   + 4    1 +   +   + 4 +  1 + 2 + 3 +   + 
                               
G|------------8---|----------------|----------------|----------------|
D|----------8---8-|------------8---|----------------|----------------|
A|------6---------|------8---8---8-|7-7---------7---|6-6---1---1---2-|
E|----------------|6-6-------------|------7---7---7-|----------------|
        +   + 4 +  1 +   +   + 4 +  1 +   +   + 4 +  1 +   +   +   +

G|--4-3---1-------|----------------|--------------------|--------------------
D|----------4-3---|----------6-----|--------12-12-12-12-|--------------------
A|--------------2-|4-4-4-4-8---8-4-|5-5-5-5-------------|--------19-19-19-19-
E|----------------|----------------|--------------------|0-0-0-0-------------
    + 2   3 + 4 +  1 + 2 + 3 + 4 +  1 + 2 + 3  +  4  +   1 + 2 + 3  +  4  +


G|----------------|----------------|----------------|----------------|
D|----------------|----------------|----------------|--------8-8-----|
A|6-6-6-6---------|------------5-5-|3-3-3-3/8-8-8-8-|1-1-1-1-----5-5-|
E|--------1-1-1-1-|3-3-5-5-6-6-----|----------------|----------------|
  1 + 2 + 3 + 4 +  1 + 2 + 3 + 4 +  1 + 2 + 3 + 4 +  1 + 2 + 3 + 4 +

G|----------------|----------------|----------------|-------------------|
D|----------------|----------------|----------------|-------------------|
A|6-6-6-6/8-8-8-8-|------5---5---5-|6-6---6-8-8-8-8-|---5--10---10-10---|
E|----------------|3-5-6-------6---|----6-----------|3------------------|
  1 + 2 + 3 + 4 +  1 + 2 +   + 4 +  1 + 2 + 3 + 4 +  1  a  +    +  4  

G|----------------|----------------|----------------|----------------|
D|----------------|----------------|----------------|--------8-8-----|
A|6-6-6-6/8-8-8-8-|------------5-5-|3-3-3-3/8-8-8-8-|1-1-1-1-----5-5-|
E|----------------|3-3-5-5-6-6-----|----------------|----------------|
  1 + 2 + 3 + 4 +  1 + 2 + 3 + 4 +  1 + 2 + 3 + 4 +  1 + 2 + 3 + 4 +
                 
G|----------------|----------------|----------------|---------------------|
D|----------------|----------------|----------------|---------------------|
A|6-6---6/8-8---8-|------5---5---5-|6-6-6-6-8-8-8-8-|10--15--14---14-14\--|
E|----6-------8---|3-5-6-------6---|----------------|---------------------|
  1 + 2 + 3 + 4 +  1 + 2 +   + 4 +  1 + 2 + 3 + 4 +  1   a   +    +  4

G|----------------|----------------|----------------|-----------11------|
D|----------------|----------------|----------------|----8-9-11----11---|
A|6---6-8---------|9-9-9-9-9-9-9-9-|5-5-5-7-7---7-8-|9-9--------------9-|
E|--6-------------|----------------|----------9-----|-------------------|
  1 + 2 +          1 + 2 + 3 + 4 +  1 + 2 + 3 + 4 +  1 + 2 + 3  +  4  +

G|----------------|----------------|----------------|----------------|
D|----------------|----------------|----------------|----------------|
A|5-5-5-------5-7-|9-9-9-9-9-9-9-9-|5---5-7-----7---|5-5-5---5-5-5-5-|
E|------7---7-----|----------------|--5-------7-----|------5---------|
  1 + 2 +   + 4 +  1 + 2 + 3 + 4 +  1 + 2 +   + 4    1 + 2 + 3 + 4 +

G|----------------|----------------|----------------|----------------|
D|----------------|------REST------|------REST------|------REST------|
A|5-4-2-7---7-7---|----------------|----------------|----------------|
E|----------------|----------------|----------------|----------------|
  1 + 2 +   + 4

G|----------------|----------------|----------------|----------------|
D|------REST------|----------------|----------------|----------------|
A|----------------|5-------7-------|4-----9---------|5---------------|
E|----------------|----------------|----------------|--------0/------|
                   1       3        1 + 2 +          1 + 2 + 3

G|----------------|----------------|----------------|----------------|
D|----------------|----------------|----------------|----------------|
A|6-6-6-6---------|------------5-5-|3-3-3-3---------|1-1-1-0-1-0-1-5-|
E|--------1-1-1-1-|3-3-5-5-6-6-----|--------1-1-1-1-|----------------|
  1 + 2 + 3 + 4 +  1 + 2 + 3 + 4 +  1 + 2 + 3 + 4 +  1 + 2 + 3 + 4 +  

G|----------------|----------------|----------------|---------------------|
A|----------------|----------------|----------------|---------------------|
D|6-6-6-6/8-8-8-8-|------5---5---5-|6-6---6-8-8-8-8-|---10--10---10-10-10-|
E|----------------|3-5-6-------5---|----6-----------|3--------------------|
  1 + 2 + 3 + 4 +  1 + 2 +   + 4 +  1 + 2 + 3 + 4 +  1  a   +    +  4  +

G|----------------|----------------|----------------|----------------|
A|----------------|----------------|----------------|8-8-7-7-5-5-----|
D|6-6-6-6/8-8-8-8-|------------5-5-|3-3-3-3/8-8-8-8-|------------8-5-|
E|----------------|3-3-5-5-6-6-----|----------------|----------------|
  1 + 2 + 3 + 4 +  1 + 2 + 3 + 4 +  1 + 2 + 3 + 4 +  1 + 2 + 3 + 4 +

G|----------------|----------------|----------------|---------------------|
A|----------------|----------------|----------------|---------------------|
D|6-6---6-8-8---8-|------5---5---5-|6---6---8---8---|10--15--14---14-14\--|
E|----6-------8---|3-5-6-------6---|--6---6---8---8-|---------------------|
  1 + 2 + 3 + 4 +  1 + 2 +   + 4 +  1 + 2 + 3 + 4 +  1   a   +    +  4

G|----------------|----------------|----------------|----------------|
A|----------------|--5-8-----------|----------------|----------------|
D|6---6---8---12--|6-----6-8-8---8-|------------5-5-|3-3---3-----3---|
E|--6-------------|------------8---|3-3-5-5-6-6-----|----3---1-1---1-|
  1 + 2 + 3 + 4 +  1 + 2 + 3 + 4 +  1 + 2 + 3 + 4 +  1 + 2 + 3 + 4 + 

G|----------------|----------------|----------------|----------------|  
A|------8---8-----|----------------|----------------|----------------| 
D|1-1-1-------5-5-|6-6---6-8-8-8-8-|------5---5---5-|6-6-6-6/8-8-8-8-|
E|----------------|----6-----------|3-5-6-------6---|----------------| 
  1 + 2 + 3 + 4 +  1 + 2 + 3 + 4 +  1 + 2 + 3 + 4 +  1 + 2 + 3 + 4 +

G|----------------------|-----------------|----------------|
A|----------------------|------------10---|----------------|
D|10--10--10---10-10-10-|6-6-6-6/8-8----8-|------------5-5-|
E|----------------------|-----------------|3-3-5-5-6-6-----|
  1   a   +    +  4  +   1 + 2 + 3 + 4  +  1 + 2 + 3 + 4 +  

G|----------------|----------------|----------------|
A|------5-3-3-3-3-|8-8-8-7-8-7-----|----------------|
D|3-3-6-----------|------------8-5-|6-6---6-8-8---8-|
E|----------------|----------------|----6-------8---|
  1 + 2 + 3 + 4 +  1 + 2 + 3 + 4 +  1 + 2 + 3 + 4 + 

G|------------------------|8-8---8-10-10----10-|12-\7------------|
A|---------12-12-12----12-|----8---------10----|-------5---5-5-5-|
D|10-10-12----------12----|--------------------|-----------------|
E|------------------------|--------------------|-----------------|
  1  +  2  +  3  +  4  +   1 + 2 + 3  +  4  +   1   a  +   + 4 + 

G|----------------|----------------|----------------|----------------|
A|----------------|----------------|----------------|----------------|
D|6---6-8---------|----------------|----------------|----------------|
E|--6-------------|1-----------4---|3---------------|------------3\--|
  1 + 2 +          1           4    1                            4  


                   
http://www.megrock.com/index.html

            
            
Suggest correction
Creating personal tab
Creating personal tab
You can edit any tab online and save it as your Personal.

You can edit, replace or remove any tab part or add personal notes – all changes will be seen only by you.

Personal tabs can be accessed anytime from any device, even offline.
Learn more »
Give kudos to tab author, rate the tab!
1 2 3 4 5
comments
print report bad tab
guest
You may want to rate the tab now too:
select rating
Wanna post a correction for this tab? Suggest correction