Oops, an error
Loading. Please wait.

13 Acoustic tab

version 1
version 1

Whole song

7,759 views 27 this week
no commentswrite comment
1 2 3 4 5
x 5
add to favorites
×
Save as Personal and add changes to this tab that will be seen only by you. Learn more ›
×
You can save this tab as Personal to edit and correct it or add notes. All changes will be seen only by you. Learn more »
launch autoscroll
font size
0
reset
how to read this tab
guitar tuner
edit
Autoscroll
slow
fast
+/-
esc
set tempo
stop
Author
Difficulty
0:00 - 3:04 im not good with solos but i thought i could do the acoustic for the whole 
song. this is my first tab so im sorry if i missed anything

*Intro
|--------0---0-------------0---0--------------0---0-------------0---0------|
|------0---0---0---------0---0---0----------0---0---0---------0---0---0----|
|----0-----------0-----0-----------0------0-----------0-----0-----------0--|
|--2-----------------------------------------------------------------------|
|-------------------3------------------4------------------3----------------|
|--------------------------------------------------------------------------|

|--------0---0-------------0---0--------------0---0-------------0---0------|
|------0---0---0---------0---0---0----------0---0---0---------0---0---0----|
|----0-----------0-----0-----------0------0-----------0-----0-----------0--|
|--2-----------------------------------------------------------------------|
|-------------------3------------------4------------------5----------------|
|--------------------------------------------------------------------------|

|--------0---0-------------0---0--------------0---0-------------0---0------|
|------0---0---0---------0---0---0----------0---0---0---------0---0---0----|
|----0-----------0-----0-----------0------0-----------0-----0-----------0--|
|--2-----------------------------------------------------------------------|
|-------------------3------------------4------------------3----------------|
|--------------------------------------------------------------------------|

|--------0---0-------------0---0--------------0---0-------------0---0------|
|------0---0---0---------0---0---0----------0---0---0---------0---0---0----|
|----0-----------0-----0-----------0------0-----------0-----0-----------0--|
|--2-----------------------------------------------------------------------|
|-------------------3------------------4-----------------5-----------------|
|--------------------------------------------------------------------------|

*Verse 1
|--------0---0-------------0---0--------------0---0-------------0---0--------|
|------0---0---0---------0---0---0----------0---0---0---------0---0---0------|
|----0-----------0-----0-----------0------0-----------0-----0-----------0----|
|--2----------------2--------------------------------------------------------|
|-------------------------------------3------------------3-------------------|
|----------------------------------------------------------------------------|

|--------0---0-------------0---0--------------0---0-------------0---0------|
|------0---0---0---------0---0---0----------0---0---0---------0---0---0----|
|----0-----------0-----0-----------0------0-----------0-----0-----------0--|
|--------------------------------------------------------------------------|
|-4-----------------4------------------3-----------------3-----------------|
|--------------------------------------------------------------------------|

|--------0---0-------------0---0--------------0---0-------------0---0------|
|------0---0---0---------0---0---0----------0---0---0---------0---0---0----|
|----0-----------0-----0-----------0------0-----------0-----0-----------0--|
|--2----------------2------------------------------------------------------|
|--------------------------------------3------------------3----------------|
|--------------------------------------------------------------------------|

|--------0---0-------------0---0--------------0---0-------------0---0------|
|------0---0---0---------0---0---0----------0---0---0---------0---0---0----|
|----0-----------0-----0-----------0------0-----------0-----0-----------0--|
|--------------------------------------------------------------------------|
|-4-----------------4-----------------5-----------------5------------------|
|--------------------------------------------------------------------------|

*Pre-Chorus
|--------------------------------------------------------------------------|
|-----10--8----10-8----10-8----7-8-7-----10-8----10-8-----10-8-------------|
|--9---9--7-----9-7-----9-7----6-7-6--9---9-7-----9-7------9-7-------------|
|--9----------------------------------9-----------------------------2-2-2--|
|--7--------7-------7-0------7--------7-------7-------7-0------7----2-2-2--|
|------------8----------------7-----------------8----------------7--0-0-0--|

*Chorus
|--------0---0-------------0---0--------------0---0-------------0---0------|
|------0---0---0---------0---0---0----------0---0---0---------0---0---0----|
|----0-----------0-----0-----------0------0-----------0-----0-----------0--|
|--2-----------------------------------------------------------------------|
|-------------------3------------------4------------------3----------------|
|--------------------------------------------------------------------------|

|--------0---0-------------0---0--------------0---0-------------0---0------|
|------0---0---0---------0---0---0----------0---0---0---------0---0---0----|
|----0-----------0-----0-----------0------0-----------0-----0-----------0--|
|--2-----------------------------------------------------------------------|
|-------------------3------------------4------------------5----------------|
|--------------------------------------------------------------------------|

|--------0---0-------------0---0--------------0---0-------------0---0------|
|------0---0---0---------0---0---0----------0---0---0---------0---0---0----|
|----0-----------0-----0-----------0------0-----------0-----0-----------0--|
|--2-----------------------------------------------------------------------|
|-------------------3------------------4------------------3----------------|
|--------------------------------------------------------------------------|

|--------0---0-------------0---0--------------0---0-------------0---0------|
|------0---0---0---------0---0---0----------0---0---0---------0---0---0----|
|----0-----------0-----0-----------0------0-----------0-----0-----------0--|
|--2-----------------------------------------------------------------------|
|-------------------3------------------4-----------------5-----------------|
|--------------------------------------------------------------------------|

*Acoustic Solo
|-------------------------------------------------------------------|
|-------------------------------------------------------------------|
|--9--11--12--9--11--12--9--11--12--14--12--11--9--7--9--11--12--9--|
|-------------------------------------------------------------------|
|-------------------------------------------------------------------|
|-------------------------------------------------------------------|

|-----------------------------------------|
|-----------------------------------------|
|-----------------------------------------|
|--10--12--9--10--7--9--5--7--4--5--0--2--|
|-----------------------------------------|
|-----------------------------------------|

*Verse 2

|--------0---0-------------0---0--------------0---0-------------0---0--------|
|------0---0---0---------0---0---0----------0---0---0---------0---0---0------|
|----0-----------0-----0-----------0------0-----------0-----0-----------0----|
|--2----------------2--------------------------------------------------------|
|-------------------------------------3------------------3-------------------|
|----------------------------------------------------------------------------|

|--------0---0-------------0---0--------------0---0-------------0---0------|
|------0---0---0---------0---0---0----------0---0---0---------0---0---0----|
|----0-----------0-----0-----------0------0-----------0-----0-----------0--|
|--------------------------------------------------------------------------|
|-4-----------------4------------------3-----------------3-----------------|
|--------------------------------------------------------------------------|

*Pre-Chorus
|--------------------------------------------------------------------------|
|-----10--8----10-8----10-8----7-8-7-----10-8----10-8-----10-8-------------|
|--9---9--7-----9-7-----9-7----6-7-6--9---9-7-----9-7------9-7-------------|
|--9----------------------------------9-----------------------------2-2-2--|
|--7--------7-------7-0------7--------7-------7-------7-0------7----2-2-2--|
|------------8----------------7-----------------8----------------7--0-0-0--|

*Chorus
|--------0---0-------------0---0--------------0---0-------------0---0------|
|------0---0---0---------0---0---0----------0---0---0---------0---0---0----|
|----0-----------0-----0-----------0------0-----------0-----0-----------0--|
|--2-----------------------------------------------------------------------|
|-------------------3------------------4------------------3----------------|
|--------------------------------------------------------------------------|

|--------0---0-------------0---0--------------0---0-------------0---0------|
|------0---0---0---------0---0---0----------0---0---0---------0---0---0----|
|----0-----------0-----0-----------0------0-----------0-----0-----------0--|
|--2-----------------------------------------------------------------------|
|-------------------3------------------4------------------5----------------|
|--------------------------------------------------------------------------|

|--------0---0-------------0---0--------------0---0-------------0---0------|
|------0---0---0---------0---0---0----------0---0---0---------0---0---0----|
|----0-----------0-----0-----------0------0-----------0-----0-----------0--|
|--2-----------------------------------------------------------------------|
|-------------------3------------------4------------------3----------------|
|--------------------------------------------------------------------------|

|--------0---0-------------0---0--------------0---0-------------0---0------|
|------0---0---0---------0---0---0----------0---0---0---------0---0---0----|
|----0-----------0-----0-----------0------0-----------0-----0-----------0--|
|--2-----------------------------------------------------------------------|
|-------------------3------------------4-----------------5-----------------|
|--------------------------------------------------------------------------|

There you guys nd gals go hope i didnt miss anything email me if there is any 
problems reaperz23@hotmail.com
Thanks :)

            
            
Suggest correction
Creating personal tab
Creating personal tab
You can edit any tab online and save it as your Personal.

You can edit, replace or remove any tab part or add personal notes – all changes will be seen only by you.

Personal tabs can be accessed anytime from any device, even offline.
Learn more »
comments
print report bad tab
guest
You may want to rate the tab now too:
select rating
Wanna post a correction for this tab? Suggest correction