Oops, an error
Loading. Please wait.

Ashes In Your Mouth guitar pro

version 3
27,953 views 18 this week
5 commentsread comments
1 2 3 4 5
x 28
add to favorites
guitar tuner
Autoscroll
slow
fast
+/-
esc
set tempo
stop
"Ashes In Your Mouth"
demo version
Play now

or get full version for Free

×
Get full version now!
Learn and play this song
in Tab Pro
Try for free

or get $10 off Welcome Bonus

Get welcome bonus
Get access to Tab Pro version of “Ashes In Your Mouth”!
Tab Pro is a premium guitar tab service, available on PC, Mac, iOS and Android
TRY FOR FREE
To download “Ashes In Your Mouth” Guitar Pro tab click button below
Please note that you must have Guitar Pro software installed on your
computer in order to view this file.
Suggest correction
comments
report bad tab
5 comments total. Showing first comments.
0 reply
lechera 31 Feb 20, 2011 04:20 PM

tempo is actually 148... not 144 or whatever you had it on... lol

0 reply
Joe78man 10 Jun 26, 2013 06:03 PM

Save for minor notes it's perfect

+1 reply
Joe78man 10 Jun 26, 2013 06:18 PM

The actual guitar is:

D stands for duration, 8= eighh, 16= sixteenth ...
R stands for rest

-----------------------------| ---------------| 
-----------------------------| ---------------|
4-----------------------------|2---------------|4
4---2-R------5----(2)-R-------|4---5-----------|4--(0)
---2---4--5-3--5--2-----4--5-| ---3--5--5--5--| ---2
---0---2--3-3--5--0-----2--3-| ---3--3--5--3--|
D: 8 16 16 8 8 8 8 16 16 8 8 8 8

------------------------------| ------------------
------------------------------| ------------------
4------------------------------|5------------------
4--(0)--------5--------R-------|8---5--------------
---2---4--5--3--5--2-----4--5-| ---3--5--5--5--5--
---0---2--3--3--3--0-----2--3-| ---3--3--5--3--2--
D: 4 16 16 8 8 8 8 16 16 8 8 8 8 8

guest