Oops, an error
Loading. Please wait.

Black Curtains tab

version 4
version 4

Whole song

Interactive

567 views 1 this week
1 commentread comment
1 2 3 4 5
2 more votes to show rating
add to favorites
×
Save as Personal and add changes to this tab that will be seen only by you. Learn more ›
×
You can save this tab as Personal to edit and correct it or add notes. All changes will be seen only by you. Learn more »
launch autoscroll
font size
0
reset
how to read this tab
guitar tuner
edit
Autoscroll
slow
fast
+/-
esc
set tempo
stop
Tuning:EbAbDbGbBbEb

Symbols:
*=palm mute
/=slide

____________________________________________________________________________
Intro: Play this riff 3 times

-----------------------------------------------------------------------------------|
-----------------------------------------------------------------------------------|
-----------------------------------------------------------------------------------|
----------------------------------------------------------2222222-1-----2222222-1--|
--22-2/3-2/3----------------------------------------0000000-3-----0000000-3---00---|
4/5-4/5----------------------------------------------------------------------------|
*******       *******     **

____________________________________________________________________________
Verses: Play 3 times

-----------------------------------------------------------------------------------|
-----------------------------------------------------------------------------------|
--------------------------------------------------------------------------------7--|
-------------------------------------------------------------765----765-8-5--------|
765----7/8--7/8--4/5--4/5-----------------------------00-----00-----6----00--------|
00-5/6--5/6--2/3--2/3--------------------------------------------------------------|
**     **          **     **
____________________________________________________________________________
Now play the intro 2 times instead of 3
____________________________________________________________________________

After that you play the verse again and repeat the intro the full three times.
____________________________________________________________________________

Then there is this part after playing the intro:

Part 1:
----------------------------------------------------------------------------------|
----------------------------------------------------------------------------------|
----------------------------------------------------------------------------------|
------2-----4---------------------------------------------4-----5-4-----5-4-------|
0-----2---------------------------------------------2-2-2-----2-2-----2-0-2---2-0-|
----------------------------------------------------------------------------------|

Part 2:
----------------------------------------------------------------------------|
----------------------------------------------------------------------------|
----------------------------------------------------------------------------|
------------------------2-----5---------------------------------------------|
4-----5-4-----5-4-------0-----3---------------------------------------------|
2-2-2-----2-2-----2-0-2---2-0-----------------------------------------------|

____________________________________________________________________________
Bridge:

----------------|---------------------|---------------|--------------------|
----------------|---------------------|---------------|--------------------|
----------------|---------------------|---------------|--------------------|
--2-------------|---------0-2---------|-2-------------|---------0-2--------|
-----2-5-1--4-2-|-4-2---2-----4s5-4s5-|----2-5-1--4-2-|-4-2---2-----4s5----|
----------------|-----0-------2s3-2s3-|---------------|-----0-------2s3----|

____________________________________________________________________________
Solo:

|-----------2------------------2---------------2---------------------2-----|
|-------------5p2-5b7==(5)r(5)---5p2-------------[5]p2-[5]b7==([5])r---5p2-|
|-4b6==(4)r--------------------------4b6==(4)r-----------------------------|
|--------------------------------------------------------------------------|
|--------------------------------------------------------------------------|
|--------------------------------------------------------------------------|

|--------3h5p3-2h3p2-0h2p0--------------------|
|--------------------------3h5p3-2h3p2-0h2p0--|
|-4-------------------------------------------|
|---------------------------------------------|
|---------------------------------------------|
|---------------------------------------------|

|-0h2h==3-3p2p0--2p0---0-----------------------------|
|--------------------3---3p2-2h3h5-5p3p2-3p2---2-----|
|--------------------------------------------4---4p2-|
|----------------------------------------------------|
|----------------------------------------------------|
|----------------------------------------------------|

|--------------------------------------------------------|
|----------------------3h4h6---------------------5h6h8---|
|-2h3h==5--------2h3h5-------4h5h==7-------4h5h7---------|
|---------2h3h5----------------------4h5h7---------------|
|--------------------------------------------------------|
|--------------------------------------------------------|

|-------------14--------------------14-------17p14----19p14------1419p17p14--|
|----------------17p14----------------17p14------14------14-14h17------------|
|-16b18==(16)r----------16b18==(16)r-----------------------------------------|
|----------------------------------------------------------------------------|
|----------------------------------------------------------------------------|
|----------------------------------------------------------------------------|

            
            
Suggest correction
Creating personal tab
Creating personal tab
You can edit any tab online and save it as your Personal.

You can edit, replace or remove any tab part or add personal notes – all changes will be seen only by you.

Personal tabs can be accessed anytime from any device, even offline.
Learn more »
Give kudos to tab author, rate the tab!
1 2 3 4 5
comments
print report bad tab
1 comment total.
0 reply
kaos572 30 Jan 24, 2009 04:13 PM

this is a really confusing tab. like the intro and verse.

guest
You may want to rate the tab now too:
select rating
Wanna post a correction for this tab? Suggest correction