Oops, an error
Loading. Please wait.

Burnt Ice tab

version 2
version 2

Whole song

Interactive

1,071 views 1 this week
no commentswrite comment
1 2 3 4 5
3 more votes to show rating
add to favorites
×
Save as Personal and add changes to this tab that will be seen only by you. Learn more ›
×
You can save this tab as Personal to edit and correct it or add notes. All changes will be seen only by you. Learn more »
launch autoscroll
font size
0
reset
how to read this tab
guitar tuner
edit
Autoscroll
slow
fast
+/-
esc
set tempo
stop
#----------------------------------PLEASE NOTE---------------------------------#
#This file is the author's own work and represents their interpretation of the #
#song. You may only use this file for private study, scholarship, or research. #
#------------------------------------------------------------------------------#

BURNT ICE
As recorded by Megadeth
(From the 2007 Album UNITED ABOMINATIONS)

Transcribed by Russ Elton (webmaster@abysslord.com) & Jordan Baker
        

Words and Music by Dave Mustaine
Arranged by Megadeth

Gtr I (E A D G B E) - 'Rhythm Guitar'
Gtr II (E A D G B E) - 'Rhythm Guitar'
Gtr III (E A D G B E) - 'Lead Guitar'
Gtr IV (E A D G B E) - 'Lead Guitar'

 Intro
  Q=94
  F#5
 4/4
  Gtr III
   T       T       T         T       T       T       T       T
   |-----6------|  |------6-------|  |-----6------|  |-----6------|
   S S  S  S S  S  S   S  S  S S  S  S S  S  S S  S  S S  S  S S  S
|-17p0h15---------17p==0h15---------17p0h15---------17p0h15---------|
|---------17p0h15-----------17p0h15---------17p0h15---------17p0h15-|
|-------------------------------------------------------------------|
|-------------------------------------------------------------------|
|-------------------------------------------------------------------|
|-------------------------------------------------------------------|
|
| Gtrs I, II
|  Q              +E         E       H
|-------------------------------------------------------------------|
|-------------------------------------------------------------------|
|-------------------------------------------------------------------|
|-------------------------------------------------------------------|
|--4--------------(4)\----------------------------------------------|
|--2--------------(2)\----------------------------------------------|


   T       T       T          T       T       T       T       T
   |-----6------|  |-------6-------|  |-----6------|  |-----6------|
   S S  S  S S  S  S S     S  S S  S  S S  S  S S  S  S S  S  S S  S
|-18p0h15---------18p0h===15---------18p0h15---------18p0h15---------|
|---------18p0h15------------18p0h15---------18p0h15---------18p0h15-|
|--------------------------------------------------------------------|
|--------------------------------------------------------------------|
|--------------------------------------------------------------------|
|--------------------------------------------------------------------|
|
|                      ~~
|  E       E       S   E.             H
|--------------------------------------------------------------------|
|--------------------------------------------------------------------|
|--------------------------------------------------------------------|
|------------------4-------------------------------------------------|
|--------------------------------------------------------------------|
|--2-------2-----------2---------------------------------------------|


                       G5                            B5   C5
   T       T       T          T       T       T       T           T
   |-----6------|  |-------6-------|  |-----6------|  |-------6--------|
   S S  S  S S  S  S S     S  S S  S  S S  S  S S  S  S S      S  S S  S
|-19p0h15---------19p0h===15---------20p0h15---------20p0h====15---------|
|---------19p0h15------------19p0h15---------20p0h15-------------20p0h15-|
|------------------------------------------------------------------------|
|------------------------------------------------------------------------|
|------------------------------------------------------------------------|
|------------------------------------------------------------------------|
|
|  PM-----|                           PM-----|
|  E       E       S   E.             E       E       S    E.
|------------------------------------------------------------------------|
|------------------------------------------------------------------------|
|------------------------------------------------------------------------|
|------------------------------------------------------------------------|
|------------------4---5------------------------------9---10\------------|
|--0-------0-------2---3--------------0-------0-------7----8\------------|


  F#5                                                      G5
   T       T       T         T         T       T       T          T
   |-----6------|  |-------6--------|  |-----6------|  |-------6-------|
   S S  S  S S  S  S S    S  S S    S  S S  S  S S  S  S S     S  S S  S
|-21p0h15---------21p0h==15-----------22p0h15---------22p0h===15---------||
|---------21p0h15-----------21p0h==15---------22p0h15------------22p0h15-||
|------------------------------------------------------------------------||
|------------------------------------------------------------------------||
|------------------------------------------------------------------------||
|------------------------------------------------------------------------||
|
|                                      PM-------------|
|  Q               S   S     S   S     E       E       S   E.
|------------------------------------------------------------------------||
|------------------------------------------------------------------------||
|------------------------------------------------------------------------||
|------------------------------------------------------------------------||
|--4---------------x---x-----x---x---------------------4---5-------------||
|--2---------------x---x-----x---x-----0-------0-------2---3-------------||


 Verse
  N.C.
                            >
             ~~~~~~~~~~~~~~~~~~~
   E        +Q.            +Q         E    E
|-24b26====(24)-----------(24)r--------------------|
|--------------------------------------------------|
|-----------------------------------------14pb16r==|
|--------------------------------------------------|
|--------------------------------------------------|
|--------------------------------------------------|
|
|  PM------|      PM--|     PM----|   PM--|
|  S     S   S  S S S S S   S   S S S S S  S     S
|--------------------------------------------------|
|--------------------------------------------------|
|--------------------------------------------------|
|--------------------------------------------------|
|---------------0-------0-----------0------------0-|
|--2-----1---0----2-1-0-----2---1-0---2-1--0-------|


              |-----3------|               |---3---|  |--------6---------|
   +Q         E    a  E    E    S      S   S  S    S  S  S    S  S  S    S
|---------------------------------------------------------------------------|
|---------------------------------------------------------------------------|
|-(14)------------14h16---14---16b17==16r-17p16p==14-16p14------14----------|
|------------16----------------------------------------------16----16p==14--|
|---------------------------------------------------------------------------|
|---------------------------------------------------------------------------|
|
|   PM---|    PM--------|       PM--------|           PM--------|
|   S  S S S  S S       S    S  S      S   S    S     S    S     S    S
|---------------------------------------------------------------------------|
|---------------------------------------------------------------------------|
|---------------------------------------------------------------------------|
|---------------------------------------------------------------------------|
|----------0-----------------0------------------0---------------------0-----|
|---2--1-0----2-1-------0-------2------1---0----------2----1-----0----------|


   ~~
   Q        +Q         H
|--------------------------------------|
|--------------------------------------|
|--------------------------------------|
|-16-------(16)\-----------------------|
|--------------------------------------|
|--------------------------------------|
|
|  PM--|     PM----|   PM--|   PM--|
|  S S S S   S   S S S S S S S S S S S
|--------------------------------------|
|--------------------------------------|
|--------------------------------------|
|--------------------------------------|
|--------0-----------0-------0-------0-|
|--2-1-0-----2---1-0---2-1-0---2-1-0---|


   ~~~~~~~~~~~~~~
                  |--3--|
   E        +S    T  T  T  S       +S       +E     +E      a   T  T  S       a   +E.      T  T
|----------------14-------17b17.5r(17)b20==(17)---(17)r==(17)----14-----------------------------|
|-17b19====(17)r----17p14-------------------------------------14----17b19==(17)r(17)-----14-----|
|-------------------------------------------------------------------------------------------16--|
|-----------------------------------------------------------------------------------------------|
|-----------------------------------------------------------------------------------------------|
|-----------------------------------------------------------------------------------------------|
|
|  PM------|               PM--------------|        PM--------|                   PM---|
|  S     S   S    S        S        S        S  S   S  S       S     S            S  S S  S
|-----------------------------------------------------------------------------------------------|
|-----------------------------------------------------------------------------------------------|
|-----------------------------------------------------------------------------------------------|
|-----------------------------------------------------------------------------------------------|
|-----------------0-----------------------------0--------------------0--------------------0-----|
|--2-----1---0-------------2--------1--------0------2--1-------0------------------2--1-0--------|


   ~~
   Q        +Q         H
|--------------------------------------|
|--------------------------------------|
|-14-------(14)\-----------------------|
|--------------------------------------|
|--------------------------------------|
|--------------------------------------|
|
|  PM--|     PM----|   PM--|   PM--|
|  S S S S   S   S S S S S S S S S S S
|--------------------------------------|
|--------------------------------------|
|--------------------------------------|
|--------------------------------------|
|--------0-----------0-------0-------0-|
|--2-1-0-----2---1-0---2-1-0---2-1-0---|


          |-----3------|    |----3----|
  Q       E    E       E    E    E    E        +Q          a
|--------------------------------------------------------------|
|-------------12b14---10---12--------10b12====(10)-------(10)r-|
|-------------------------------11-----------------------------|
|--------------------------------------------------------------|
|--------------------------------------------------------------|
|--------------------------------------------------------------|
|
| PM--|   PM--------|       PM-----|            PM---|
| S S S S S S       S    S  S S    S        S   S  S S S
|--------------------------------------------------------------|
|--------------------------------------------------------------|
|--------------------------------------------------------------|
|--------------------------------------------------------------|
|-------0----------------0------------------0----------0-------|
|-2-1-0---2-1-------0-------2-1----0------------2--1-0---------|


  Gtr III
  W
|---------------------------------|
|---------------------------------|
|---------------------------------|
|---------------------------------|
|---------------------------------|
|---------------------------------|
|
| Gtr IV
| W
|---------------------------------|
|---------------------------------|
|---------------------------------|
|---------------------------------|
|---------------------------------|
|---------------------------------|
|
| Gtrs I, II
| PM--|   PM--|   PM--|   PM--|
| S S S S S S S S S S S S S S S S
|---------------------------------|
|---------------------------------|
|---------------------------------|
|---------------------------------|
|-------0-------0-------0-------0-|
|-2-1-0---2-1-0---2-1-0---2-1-0---|


                                          ~~~
  H.                         +S  T T S    S
|---------------------------------------------||
|---------------------------------------------||
|-4pb6r======================(4)-5p4----------||
|------------------------------------7---[4]--||
|---------------------------------------------||
|---------------------------------------------||
|
| H                  Q        E      S a  S
|---------------------------------------------||
|---------------------------------------------||
|--------------------------------------9h11---||
|---------------------------------------------||
|---------------------------------------------||
|---------------------------------------------||
|
| PM-----|   PM--|   PM--|    PM-----|
| S    S S S S S S S S S S S  S  S   S a  S
|---------------------------------------------||
|---------------------------------------------||
|---------------------------------------------||
|--------------------------------------2h=4---||
|----------0-------0-------0------------------||
|-2----1-0---2-1-0---2-1-0----2--1---0--------||


 Bridge
  N.C.
    ~~~~
   +Q.              E   H
|---------------------------------------|
|---------------------------------------|
|---------------------------------------|
|--(4)----------------------------------|
|---------------------------------------|
|---------------------------------------|
|
|  +S   S S S  S  S S S S S S S S S S S
|---------------------------------------|
|---------------------------------------|
|-(11)----9-----------------------------|
|------11---9-11----9---7---------------|
|----------------12---9---7-9---7-------|
|-----------------------------9---7-9-5-|
|
|  +S   S S S  S  S S S S S S S S S S S
|---------------------------------------|
|---------------------------------------|
|---------------------------------------|
|--(4)----2-------------4---2-----------|
|-------4---2--4----2-----4---2-4---2---|
|-----------------5---2-----------5---2-|


  W
|------------------------------------------|
|------------------------------------------|
|------------------------------------------|
|------------------------------------------|
|------------------------------------------|
|------------------------------------------|
|
| PM------------------------------------|
|                 |----6----| |----6----|
| S S S S S S S S S S S S S S S S S S S S
|------------------------------------------|
|------------------------------------------|
|------------------------------------------|
|------------------------------------------|
|-2-------6-5-4-3-2-2-2-2-2-2-2-2-2-2-2-2--|
|---2-5-0----------------------------------|
|
| PM------------------------------------|
|                 |----6----| |----6----|
| S S S S S S S S S S S S S S S S S S S S
|------------------------------------------|
|------------------------------------------|
|------------------------------------------|
|------------------------------------------|
|------------------------------------------|
|-5-0-2-0-7-6-5-4-3-3-3-3-3-3-3-3-3-3-3-3--|


  G5  E5    F#5        G5  F#5      E5
  Gtr III
   E. S +E  E +H        Q     S   S  E  +S   S Q.
|--------------------|------------------------------|
|--------------------|------------------------------|
|--------------------|------------------------------|
|-----9-(9)-8-(8)----|--------9--11-12-(12)-11-9----|
|-10-----------------|-10---------------------------|
|--------------------|------------------------------|
|
| Gtrs I, II
|  E. S +E  E +H        E. S +E      E  +H
|--------------------|------------------------------|
|--------------------|------------------------------|
|--------------------|------------------------------|
|--------------------|------------------------------|
|--5--2-(2)-4-(4)----|--5--4-(4)-----2--(2)---------|
|--3--0-(0)-2-(2)----|--3--2-(2)-----0--(0)---------|


  N.C.
   >
   H              H             H             Q     E   E
|-----------------------------|----------------------------||
|-----------------------------|-------------------------5/-||
|-----------------------------|----------------------------||
|-----------------------------|----------------------------||
|-[9]-------------------------|----------------------------||
|-----------------------------|----------------------------||
|
|       ~~~~~~~
|  S  S Q  +S  E.   S S S S E   S S S S E S S S S E S S E
|-----------------------------|----------------------------||
|-----------------------------|----------------------------||
|-----------------------------|----------------------------||
|-----------------------------|----------------------------||
|-----------------------0-----|---------------0---------0--||
|--2--3-2--(2)-0----1-2---2---|-2-3-2-----1-2---2---1-2----||


 Verse
  N.C.
   E  E  E  S  S  S  S  E  E  S  S    S S E E S S S  S  S   S   S   S   S  S
|----------------------------------|-----------------------------------------|
|-12-12-12-12-12-12s11-11-11-11-11-|-11s8-8-8-8-8-8s10-10-(10)-10-(10)-10-10-|
|----------------------------------|------------------------9---9---9--12-12-|
|----------------------------------|-----------------------------------------|
|----------------------------------|-----------------------------------------|
|----------------------------------|-----------------------------------------|
|
|  E  E  E  S  S  S  S  E  E  S  S    S S E E S S S  S  E       E       E
|----------------------------------|-----------------------------------------|
|----------------------------------|-----------------------------------------|
|----------------------------------|-----------------------------------------|
|----------------------------------|-----------------------------------------|
|----------------------------------|-----------------------------------------|
|--0--0--0--0--0--0--0--0--0--0--0-|--0-0-0-0-0-0-0--0--0-------0-------0----|


  Gtr III
    E  E  E  S  S  S  S  E  E  S  S    S S E E S S S  S  S S S S  S  S
|-----------------------------------|----------------------------------|
|-/12-12-12-12-12-12s11-11-11-11-11-|-11s8-8-8-8-8-8s10-10-------------|
|-----------------------------------|----------------------9-9-9-12-12-|
|-----------------------------------|----------------------------------|
|-----------------------------------|----------------------------------|
|-----------------------------------|----------------------------------|
|
| Gtrs I, II
|   E  E  E  S  S  S  S  E  E  S  S    S S E E S S S  S  E   S S  S  S
|-----------------------------------|----------------------------------|
|-----------------------------------|----------------------------------|
|-----------------------------------|----------------------------------|
|-----------------------------------|----------------------------------|
|-----------------------------------|----------------------------------|
|---0--0--0--0--0--0--0--0--0--0--0-|--0-0-0-0-0-0-0--0--0---0-0--0--0-|


   E  E  E  S  S  S  S  E  E  S  S    S  S  E  E  S  S  S  S  E  E  E
|----------------------------------|-------------------------------15-|
|-17-17-17-17-17-17s16-16-16-16-16-|-16s13-13-13-13-13-13s15-15-15----|
|----------------------------------|----------------------------------|
|----------------------------------|----------------------------------|
|----------------------------------|----------------------------------|
|----------------------------------|----------------------------------|
|
|  E  E  E  S  S  S  S  E  E  S  S    S  S  E  E  S  S  S  S  E  E  E
|----------------------------------|----------------------------------|
|----------------------------------|----------------------------------|
|----------------------------------|----------------------------------|
|----------------------------------|----------------------------------|
|--0--0--0--0--0--0--0--0--0--0--0-|--0--0--0--0--0--0--0--0--0--0--0-|
|----------------------------------|----------------------------------|


    E  E  E  S  S  S  S  E  E  S  S    S  S  E  E  S  S  S  S  E  E    S  S
|-----------------------------------|---------------------------------------||
|-/17-17-17-17-17-17s16-16-16-16-16-|-16s13-13-13-13-13-13s15-15-15---15-15-||
|-----------------------------------|---------------------------------------||
|-----------------------------------|---------------------------------------||
|-----------------------------------|---------------------------------------||
|-----------------------------------|---------------------------------------||
|
|   E  E  E  S  S  S  S  E  E  S  S    S  S  E  E  S  S  S  S  E  S S  S  S
|-----------------------------------|---------------------------------------||
|-----------------------------------|---------------------------------------||
|-----------------------------------|---------------------------------------||
|-----------------------------------|---------------------------------------||
|---0--0--0--0--0--0--0--0--0--0--0-|--0--0--0--0--0--0--0--0--0--0-0--0--0-||
|-----------------------------------|---------------------------------------||


 Guitar Solo (Mustaine)
  E5                  F#5   G5   F#5                      A5   G5    F#5
   |-------6--------|  |-------6--------|  |--------6--------|
   S  S  S  S  S    S  S  S    S  S  S  S  S   S  S  S  S    S  T  T  T  T  T  T    T    T
|------------------------------------------------------------------------------------------|
|-15p12-15p12-15p==12-15p12---15p12-16p13-16p=13-16p13-16p==14-17p14-17p14-17p14---17p==14-|
|------------------------------------------------------------------------------------------|
|------------------------------------------------------------------------------------------|
|------------------------------------------------------------------------------------------|
|------------------------------------------------------------------------------------------|
|
|           PM--------------|                        PM-------------------------------|
|                                                                           |----3----|
|  E        S    S     S    S     E       +E         S    S     S     S     S    S    S
|------------------------------------------------------------------------------------------|
|------------------------------------------------------------------------------------------|
|------------------------------------------------------------------------------------------|
|------------------------------------------------------------------------------------------|
|--2-------------------4----5-----4-------(4)-------------7-----5-----4--------------------|
|--0--------0----0-----2----3-----2-------(2)--------0----5-----3-----2-----0----0----0----|


  G5                       A5    Bb5     A5                      Bb5         A5    G5    F#5
   |----------7----------|  |----------7----------|
   S  S  S  S    S  S    S  S  S    S  S    S  S  S  T   T  T  T  T  T  T  T  T  T  T  T  T  T  T  T
|-----------------------------------------------------------------------------------------------------|
|-18p15-18p15---19p15---18p15-18p==14-17p==14-17p14-16p=13-16p13-16p12-15p12-15p12-15p12-15p12-15p12--|
|-----------------------------------------------------------------------------------------------------|
|-----------------------------------------------------------------------------------------------------|
|-----------------------------------------------------------------------------------------------------|
|-----------------------------------------------------------------------------------------------------|
|
|             PM-----------------|                                PM---------------|
|  E          S       S     S    S       E          +E            S     S     S     S     E
|-----------------------------------------------------------------------------------------------------|
|-----------------------------------------------------------------------------------------------------|
|-----------------------------------------------------------------------------------------------------|
|-----------------------------------------------------------------------------------------------------|
|--5----------5-------------7----8-------7----------(7)-----------8-----------7-----5-----4-----------|
|--3----------3-------0-----5----6-------5----------(5)-----------6-----0-----5-----3-----2-----------|


  E5     F#5  G5         F#5             A5         G5F#5
                           |--3--|
   Q      +S   +S         +S   S S  E.    +E           +S    T      +T     a  S
|---------------------------------------------------------------------------------|
|-12-----(12)-(12)b12.5==(12)r-x-x-14----(14)b14.5====(14)r------------------12---|
|-12-----(12)-(12)b12.5==(12)r-x-x-14----(14)b14.5====(14)r-14pb16r(14)---12------|
|---------------------------------------------------------------------------------|
|---------------------------------------------------------------------------------|
|---------------------------------------------------------------------------------|
|
|    PM-------|                        PM---------------------------------------|
|                                                            |--------3---------|
|  E S S   S    S          E       +E  S   S        S   S    S          S       S
|---------------------------------------------------------------------------------|
|---------------------------------------------------------------------------------|
|---------------------------------------------------------------------------------|
|---------------------------------------------------------------------------------|
|--2-------4----5----------4-------(4)-----7--------5---4-------------------------|
|--0-0-0---2----3----------2-------(2)-0---5--------3---2----0----------0-------0-|


  G5                  A5    Bb5  A5                 Bb5        A5    G5   F#5
   |-------6--------|  |-------6--------|  |--------6--------|  |-------6--------|
   S  S  S  S  S    S  S  S    S  S  S  S  S   S  S  S  S    S  S  S    S  S  S  S
|------------------------------------------------------------------------------------|
|------------------------------------------------------------------------------------|
|-14p12------------------------------------------------------------------------------|
|-------14-12h14p==12-13p12------12--------------------------------------------------|
|-----------------------------14----14p13-13p=12-------------------------------------|
|------------------------------------------------15-12-13---15-13-12---15-13-12-15---|
|
|           PM--------------|                        PM--------------|
|  E        S    S     S    S     E       +E         S    S     S    S     E
|------------------------------------------------------------------------------------|
|------------------------------------------------------------------------------------|
|------------------------------------------------------------------------------------|
|------------------------------------------------------------------------------------|
|--5--------5----------7----8-----7-------(7)--------8----------7----5-----4---------|
|--3--------3----0-----5----6-----5-------(5)--------6----0-----5----3-----2---------|


  E5      F#G5F#5          A5G5F#5
   ~~~
   Q.          +E    H
|--------------------------------------|
|--------------------------------------|
|--------------------------------------|
|--------------------------------------|
|--------------------------------------|
|-12----------(12)s(10)\---------------|
|
|     PM----|            PM----------|
|                                |-3-|
|  E  S S S S   E   +E   S S S S S S S
|--------------------------------------|
|--------------------------------------|
|--------------------------------------|
|--------------------------------------|
|--2------4-5---4---(4)----7-5-4-------|
|--0--0-0-2-3---2---(2)--0-5-3-2-0-0-0-|


  G5                  A5    Bb5  A5                 Bb5        A5    G5   F#5
   |-------6--------|  |-------6--------|  |--------6--------|  |--------6--------|
   S  S  S  S  S    S  S  S    S  S  S  S  S   S  S  S  S    S  S  S    S  S  S   S
|--------------------------------------------------------------12-13---13-15-15-/18--|
|---------------------------------------------------12-13---14-----------------------|
|-----------------------------------------12--13-14----------------------------------|
|--------------------------------12-14-15--------------------------------------------|
|------------------12-12-14---15-----------------------------------------------------|
|-12-14-15-14-15---------------------------------------------------------------------|
|
|           PM--------------|                        PM--------------|
|  E        S    S     S    S     E       +E         S    S     S    S     E
|------------------------------------------------------------------------------------|
|------------------------------------------------------------------------------------|
|------------------------------------------------------------------------------------|
|------------------------------------------------------------------------------------|
|--5--------5----------7----8-----7-------(7)--------8----------7----5-----4---------|
|--3--------3----0-----5----6-----5-------(5)--------6----0-----5----3-----2---------|


  E5                  F#5   G5   F#5                      A5   G5    F#5
   |-------6--------|  |-------6--------|  |--------6--------|  |-------6--------|
   S  S  S  S  S    S  S  S    S  S  S  S  S   S  S  S  S    S  S  S    S  S  S  S
|-14p12----12-14p==12-14p12------12-14p12-15p=12----12-15p==12-15p12------12--------|
|-------16--------------------16-----------------16--------------------16----16-13--|
|-----------------------------------------------------------------------------------|
|-----------------------------------------------------------------------------------|
|-----------------------------------------------------------------------------------|
|-----------------------------------------------------------------------------------|
|
|           PM--------------|                        PM-------------------------|
|                                                                          |--3--|
|  E        S    S     S    S     E       +E         S    S     S    S     S  S  S
|-----------------------------------------------------------------------------------|
|-----------------------------------------------------------------------------------|
|-----------------------------------------------------------------------------------|
|-----------------------------------------------------------------------------------|
|--2-------------------4----5-----4-------(4)-------------7-----5----4--------------|
|--0--------0----0-----2----3-----2-------(2)--------0----5-----3----2-----0--0--0--|


  G5                      A5    Bb5   A5                       Bb5         A5    G5    A5
   T  T  T  T  T  T  T  T  T  T  T  T  T  T  T  T  T   T  T  T  T  T  T  T  T  T  T  T  T  T  T  T
|-14p12----12-15p12----12-14p12----12-15p12----12-14p=12----15p12----14p12----12-15p12----14p12-----|
|-------16----------16----------16----------16-----------16-------16-------16----------16-------16--|
|---------------------------------------------------------------------------------------------------|
|---------------------------------------------------------------------------------------------------|
|---------------------------------------------------------------------------------------------------|
|---------------------------------------------------------------------------------------------------|
|
|              PM---------------|                               PM---------------|
|  E           S     S     S     S     E          +E            S     S     S     S     E
|---------------------------------------------------------------------------------------------------|
|---------------------------------------------------------------------------------------------------|
|---------------------------------------------------------------------------------------------------|
|---------------------------------------------------------------------------------------------------|
|--5-----------5-----------7-----8-----7----------(7)-----------8-----------7-----5-----7-----------|
|--3-----------3-----0-----5-----6-----5----------(5)-----------6-----0-----5-----3-----5-----------|


  B5             N.C.           E5/B                                B5
   TP
   E  T  T  T  T  E  T  T  T  T  T  T  T  T  T  T  T  T  T  T  T  T  T  T  T  T
|-17----------14h17----------14h15h17----------14h15h17----------14h15h17--------|
|----14h15h17-------14h15h17----------14h15h17----------14h15h17----------14h15h=|
|--------------------------------------------------------------------------------|
|--------------------------------------------------------------------------------|
|--------------------------------------------------------------------------------|
|--------------------------------------------------------------------------------|
|
|  E  S     S     E  S     S     E           S     S     S     S     E
|--------------------------------------------------------------------------------|
|--------------------------------------------------------------------------------|
|--------------------------------------------------------------------------------|
|--9--------------9--------------9-----------------------------------9-----------|
|--9--x-----x-----8--x-----x-----7-----------x-----x-----x-----x-----9-----------|
|--7--x-----x-----7--x-----x-----7-----------x-----x-----x-----x-----7-----------|


                    N.C.                    E5/B                                B5
                TP
                                    |--3--|
   T   T  T  T  E    T  T  T  T  S  T  T  T  T  T  T  T  T  T  T  T  T  T  T  T  S  T  T
|-----14h15h17-19------------16h19----------16h17h19----------16h19----------17h20-------|
|-17----------------16h17h19-------16h17h19----------16h17h19-------16h17h19-------17h18-|
|----------------------------------------------------------------------------------------|
|----------------------------------------------------------------------------------------|
|----------------------------------------------------------------------------------------|
|----------------------------------------------------------------------------------------|
|
| +E            S S  E           S  S        E           S     S     S     S     E
|----------------------------------------------------------------------------------------|
|----------------------------------------------------------------------------------------|
|----------------------------------------------------------------------------------------|
|-(9)----------------9-----------------------9-----------------------------------9-------|
|-(9)-----------x-x--8-----------x--x--------7-----------x-----x-----x-----x-----9-------|
|-(7)-----------x-x--7-----------x--x--------7-----------x-----x-----x-----x-----7-------|


                    N.C.                    E5/B                             B5
          TP
                                                                     |--3--|
   T   T  E    T  T  T  T  T  T  T  T  T  T  T  S  T  T  T  T  T  S  T  T  T  T  T  S
|-17h=18-20------------17h18h20----------17h18h20----------17h18-22----------19h21h22--|
|-------------17h18h20----------17h18h20----------17h18h20----------19h21h22-----------|
|--------------------------------------------------------------------------------------|
|--------------------------------------------------------------------------------------|
|--------------------------------------------------------------------------------------|
|--------------------------------------------------------------------------------------|
|
| +E        S  S     E           S     S     E        S     S     S  S        E
|--------------------------------------------------------------------------------------|
|--------------------------------------------------------------------------------------|
|--------------------------------------------------------------------------------------|
|-(9)----------------9-----------------------9--------------------------------9--------|
|-(9)-------x--x-----8-----------x-----x-----7--------x-----x-----x--x--------9--------|
|-(7)-------x--x-----7-----------x-----x-----7--------x-----x-----x--x--------7--------|


   |--3---|           |--3--|           |--3--|           |--3--|           |--3--|
   T   T  T  T  T  S  T  T  T  T  T  S  T  T  T  T  T  S  T  T  T  T  T  S  T  T  T  T  T  S   S
|-----------19h21h22----------21h22h24----------21h22h24----------21h22h24----------21h22h24--24-||
|-19h=21h22----------19h21h22----------21h22h24----------21h22h24----------21h22h24--------------||
|------------------------------------------------------------------------------------------------||
|------------------------------------------------------------------------------------------------||
|------------------------------------------------------------------------------------------------||
|------------------------------------------------------------------------------------------------||
|
|                  PM---------|
| +E               E           E        E              E           E        E              E
|------------------------------------------------------------------------------------------------||
|------------------------------------------------------------------------------------------------||
|------------------------------------------------------------------------------------------------||
|-(9)--------------------------------------------------------------------------------------------||
|-(9)--------------9-----------9--------9--------------9-----------9--------9--------------9\----||
|-(7)--------------7-----------7--------7--------------7-----------7--------7--------------7\----||


 Verse
  N.C.                      C5    G5      N.C.                  A5    E5
                                            >
                   ~~~~~~~~~~~~~~~~~~~~~~~~~~~~~
   +Q             +H.                      +W
|-(24)b26========(24)-------------------|-(24)r-----------------------------|
|---------------------------------------|-----------------------------------|
|---------------------------------------|-----------------------------------|
|---------------------------------------|-----------------------------------|
|---------------------------------------|-----------------------------------|
|---------------------------------------|-----------------------------------|
|
|   PM-------|                              PM----|
|   S      S S S  +S  S S S S S E S S E     S   S S S +S  S S S S S E S S E
|---------------------------------------|-----------------------------------|
|---------------------------------------|-----------------------------------|
|---------------------------------------|-----------------------------------|
|--------------4--(4)-------5-5---------|-----------4-(4)-------2-2---------|
|------------4--------4-----3-3---5-5---|---------4-------4-----0-0---2-2---|
|---2------5------------5-2-------3-3---|---2---5-----------5-2-------0-0---|


    N.C.              C5    G5      N.C.              A5    E5
    Gtrs I, II
    PM--|                           PM--|
    S S S S +S  S S S S S E S S E   S S S S +S  S S S S S E S S E
||--------------------------------|---------------------------------||
||o-------------------------------|--------------------------------o||
||--------------------------------|---------------------------------||
||--------4-(4)-------5-5---------|-------4-(4)-------2-2-----------||
||o-----4-------4-----3-3---5-5---|-----4-------4-----0-0---2-2----o||
||--2-5-----------5-2-------3-3---|-2-5-----------5-2-------0-0-----||


  N.C.              C5    G5      N.C.              A5N.C.  D5C#5
  PM--|                           PM--|
                                                    |-3-| |-3-|
  S S S S +S  S S S S S E S S E   S S S S +S  S S S E E E E E E
|-------------------------------|-------------------------------||
|-------------------------------|-------------------------------||
|-------------------------------|-------------------------------||
|-------4-(4)-------5-5---------|-------4-(4)-------2-------7-6-||
|-----4-------4-----3-3---5-5---|-----4-------4-----0-------5-4-||
|-2-5-----------5-2-------3-3---|-2-5-----------5-2---0-1-2-----||


 Guitar Solo (Drover)
  Q=188
  C5   N.C.
  Gtr III
    ~~~                      PM--|
                        |----3----|
    W                  +Q    Q    Q   E  E  +S  S S S
|-------------------|---------------------------------|
|-------------------|---------------------------------|
|-------------------|-----------------7-10-(10)-9-8-7-|
|-------------------|------------10-------------------|
|-/10---------------|-(10)\-10------------------------|
|-------------------|---------------------------------|
|
| Gtrs I, II
|           PM|
|   Q  Q  E E E S S    +Q      E    E E  E   E    E
|-------------------|---------------------------------|
|-------------------|---------------------------------|
|-------------------|---------------------------------|
|---5---------------|---------------------------------|
|---3-----------5h6-|--(6)-----5----3-5-----------3---|
|------3----4-3-----|--------------------4---3--------|


   ~~~~~~~~~~~~~~~
   H.         +E  +E       E  E  E E  E.    S  +E   S  S
|-----------------------|---------------------------------|
|-----------------------|---------------------------------|
|--8----------(8)-(8)s==|==4-------8-10----12-(12)-12h13--|
|-----------------------|-----6s10------------------------|
|-----------------------|---------------------------------|
|-----------------------|---------------------------------|
|
|         PM
| +Q   Q  E E  E   S  S   +Q     E E  E  E      E   E
|-----------------------|---------------------------------|
|-----------------------|---------------------------------|
|-----------------------|---------------------------------|
|-----------------------|---------------------------------|
|-(3)--------------5h=6-|-(6)----5-3--5-------------3-----|
|------4--0-4--3--------|----------------4------3---------|


             ~~~~~~~~~~~~~~~~~
   Q.     E  H            +Q.     +E   Q.      E
|----------------------|-------------------------|
|----------------------|-------------------------|
|-12-----10-10---------|-(10)----(10)\-8/-----15-|
|----------------------|-------------------------|
|----------------------|-------------------------|
|----------------------|-------------------------|
|
|            PM
| +Q   Q     E E E S S    +Q   E   E   E  E E  E
|----------------------|-------------------------|
|----------------------|-------------------------|
|----------------------|-------------------------|
|----------------------|-------------------------|
|-(3)--------------5h6-|--(6)--5---3---5-------3-|
|------5-----0-5-3-----|------------------5-3----|


                                                     ~
   +E   E  E  E  +E   E  E  E      E   E  E E  E E E E
|-------------------------------|-----------------------|
|-------------------------------|-----------------------|
|-(15)s13----13-(13)s12----12s==|=10-----10s8----8s7-8--|
|---------15------------13------|-----12------10--------|
|-------------------------------|-----------------------|
|-------------------------------|-----------------------|
|
|                 PM
|  +Q      Q      E   E  E  S S   +Q      E E  E E E E
|-------------------------------|-----------------------|
|-------------------------------|-----------------------|
|-------------------------------|-----------------------|
|-------------------------------|-----------------------|
|--(3)----------------------5h6-|-(6)-----5-3--5-----3--|
|----------4------0---4--3------|----------------4-3----|


   ~~~                                        ~~~
  +H      E E  E a E     +E  E  E E +E   E E  E
|----------------------|------------------------|
|----------------------|------------------------|
|-(8)-------7----7h8---|-(8)-7-------------7----|
|-------------10-------|-------10-8-(8)-10---10-|
|----------------------|------------------------|
|----------------------|------------------------|
|
|         PM
| +Q   Q  E E  E   S S   +E  E  E E +E   E E  E
|----------------------|------------------------|
|----------------------|------------------------|
|----------------------|------------------------|
|----------------------|------------------------|
|-(3)-------5--3---5h6-|-(6)-5--3--------3-5--3-|
|------3--0------------|----------6-(6)---------|


 ~~~~~~                                           ~~
   +Q   Q  E E E a  E      +E  E E  E  +E  E   E  E
|-----------------------|---------------------------|
|-----------------------|---------------------------|
|------------8-7-8h10---|-(10)-8-7---------7---8----|
|-(10)--6---------------|----------10-(10)-------10-|
|-----------------------|---------------------------|
|-----------------------|---------------------------|
|
|          PM
|  +Q   Q  E E E    S S    +E  E E  E  +E  S S E  E
|-----------------------|---------------------------|
|-----------------------|---------------------------|
|-----------------------|---------------------------|
|------------5-3----5h6-|--(6)-5-3---------3h5-5----|
|--(3)------------------|-----------6--(6)--------3-|
|-------4--0------------|---------------------------|


    ~~~~                                   ~~~
   +Q   Q  E  E  E  E   E  E  E E  E  E E  E
|---------------------|----------------------|
|---------------------|-9--------------------|
|------------12-10-12-|---10-12-8-10----8----|
|-(10)--7-------------|--------------12---10-|
|---------------------|----------------------|
|---------------------|----------------------|
|
|          PM
|  +Q   Q  E  E  E  E   E  E  E E  E  E E  E
|---------------------|----------------------|
|---------------------|----------------------|
|---------------------|----------------------|
|-------------5--3--5-|-6--3--5----3---------|
|--(3)----------------|---------6-----5-6--3-|
|-------5--0----------|----------------------|


 ~~~~~~          ~~~~~~~~
   +Q   Q  E E E E   +Q   E E E E  Q
|------------------|--------------------||
|------------------|--------------------||
|----------------7-|-(7)------8-7-------||
|-(10)--8----5-8---|------9-------10\---||
|------------------|--------------------||
|------------------|--------------------||
|
|          PM
|  +Q   Q  E E E E   +Q   Q   E E  Q
|------------------|--------------------||
|------------------|--------------------||
|------------------|--------------------||
|------------------|--------------------||
|--(3)-----------5-|-(5)------6-5-------||
|-------6--0-3-6---|------7--------8\---||


 Bridge
  N.C.
  E E E E  E  E E  E   E E E E  E  E E  E
|--------------------|----------------------|
|-7-7-7-6--6--6-6--6-|-5-5-5-4--4--5-5--4---|
|-6-6-6-6--6--6-6--6-|-4-4-4-4--4--4-4--4---|
|--------------------|----------------------|
|--------------------|----------------------|
|--------------------|----------------------|
|
| PM|   ~~~~~~         PM|
| E E E E +Q    Q      E E E E +E  Q   +E
|--------------------|----------------------|
|--------------------|----------------------|
|--------------------|----------------------|
|-----4-3-(3)--------|-----2-1-(1)----------|
|---4-----------4\---|---2---------2---(2)/-|
|-2------------------|-0--------------------|


   E  E  E  E   E  E  E  E   W
|--------------------------|-------------------|
|--3--3--3--2---2--2--2--2-|-------------------|
|--2--2--2--2---2--2--2--2-|-------------------|
|--------------------------|-------------------|
|--------------------------|-------------------|
|--------------------------|-------------------|
|
|  PM|      ~~~~~~~
|  E  E  E  E  +Q     Q      E E E E +E  Q.
|--------------------------|-------------0-----|
|--------------------------|-------------0-----|
|--------------------------|-------------------|
|-------12-11-(11)---------|-------------------|
|----12--------------12\---|-------------------|
|-10-----------------------|-6-5-3-0-(0)-------|


  E E E E  E  E E  E   E E E E  E  E E  E
|--------------------|----------------------|
|-7-7-7-6--6--6-6--6-|-5-5-5-4--4--5-5--4---|
|-6-6-6-6--6--6-6--6-|-4-4-4-4--4--4-4--4---|
|--------------------|----------------------|
|--------------------|----------------------|
|--------------------|----------------------|
|
| PM|   ~~~~~~         PM|
| E E E E +Q    Q      E E E E +E  Q   +E
|--------------------|----------------------|
|--------------------|----------------------|
|--------------------|----------------------|
|-----4-3-(3)--------|-----2-1-(1)----------|
|---4-----------4\---|---2---------2---(2)/-|
|-2------------------|-0--------------------|


   E  E  E  E   E  E  E  E   H        E  Q   E
|--------------------------|---------------------||
|--3--3--3--2---2--2--2--2-|---------------------||
|--2--2--2--2---2--2--2--2-|---------------------||
|--------------------------|---------------------||
|--------------------------|---------------------||
|--------------------------|-------------x\--x/--||
|
|  PM|      ~~~~~~~                          ~~
|  E  E  E  E  +Q     Q      E E E E +E  E E E
|--------------------------|---------------------||
|--------------------------|---------------------||
|--------------------------|-----------------5---||
|-------12-11-(11)---------|-------------5h7-5---||
|----12--------------12\---|-------------5h7-----||
|-10-----------------------|-6-5-3-0-(0)---------||


 Guitar Solo (Mustaine)
  N.C.                      F#5  G5    F#5
   |--3---|  |--3---|  |---3---|  |---3---|
   E   E  E  E   E  E  E  E    E  E  E    E
|-17p=14----17p=14----17p14------17p14------|
|--------14--------14---------14---------14-|
|-------------------------------------------|
|-------------------------------------------|
|-------------------------------------------|
|-------------------------------------------|
|
|  ~~~                 PM--------|
| +Q         Q         E    E     E    E
|-------------------------------------------|
|-------------------------------------------|
|-(5)---------------------------------------|
|-(5)--------7\-----------------------------|
|------------7\-------------4-----5----4----|
|----------------------0----2-----3----2----|


                                     N.C.
   |---3----|    |----3----|    |---3---|  |---3---|
   E   E    E    E    E    E    E  E    E  E  E    E
|-17p=14--------17p==14--------17p14------17p14------|
|----------14-------------14-----------14---------14-|
|----------------------------------------------------|
|----------------------------------------------------|
|----------------------------------------------------|
|----------------------------------------------------|
|
|        PM--------------------|                ~
| +E     S    S  S S    S    S  E    E     E    E
|----------------------------------------------------|
|----------------------------------------------------|
|-----------------------------------------------5----|
|------------------------------------5h====7----5----|
|-(4)--------------------------------5h====7---------|
|-(2)----2----2--2-2----2----2--2--------------------|


                            F#5  G5    F#5
   |--3---|  |--3---|  |---3---|  |---3---|
   E   E  E  E   E  E  E  E    E  E  E    E
|-19p=14----19p=14----19p14------19p14------|
|--------14--------14---------14---------14-|
|-------------------------------------------|
|-------------------------------------------|
|-------------------------------------------|
|-------------------------------------------|
|
|  ~~~                 PM
| +Q         Q         E    E     E    E
|-------------------------------------------|
|-------------------------------------------|
|-(5)-----------------------6s====7----6----|
|-(5)--------7\-------------4s====5----4----|
|------------7\-----------------------------|
|----------------------0--------------------|


                                     N.C.
   |---3----|    |----3----|    |---3---|  |---3---|
   E   E    E    E    E    E    E  E    E  E  E    E
|-19p=14--------19p==14--------19p14------19p14------|
|----------14-------------14-----------14---------14-|
|----------------------------------------------------|
|----------------------------------------------------|
|----------------------------------------------------|
|----------------------------------------------------|
|
|        PM--------------------|
| +E     S    S  S S    S    S  E    E     E    E
|----------------------------------------------------|
|----------------------------------------------------|
|-(6)-------------------------------------------5----|
|-(4)----4----4--4-4----4----4--4----5h====7----5----|
|------------------------------------5h====7---------|
|----------------------------------------------------|


                            F#5  G5    F#5
   |--3---|  |--3---|  |---3---|  |---3---|
   E   E  E  E   E  E  E  E    E  E  E    E
|-21p=14----21p=14----21p14------21p14------|
|--------14--------14---------14---------14-|
|-------------------------------------------|
|-------------------------------------------|
|-------------------------------------------|
|-------------------------------------------|
|
|  ~~~                 PM--------|
| +Q         Q         E    E     E    E
|-------------------------------------------|
|-------------------------------------------|
|-(5)---------------------------------------|
|-(5)--------7\-----------------------------|
|------------7\-------------4-----5----4----|
|----------------------0----2-----3----2----|


                                     N.C.
   |---3----|    |----3----|    |---3---|  |---3---|
   E   E    E    E    E    E    E  E    E  E  E    E
|-21p=14--------21p==14--------21p14------21p14------|
|----------14-------------14-----------14---------14-|
|----------------------------------------------------|
|----------------------------------------------------|
|----------------------------------------------------|
|----------------------------------------------------|
|
|        PM--------------------|                ~
| +E     S    S  S S    S    S  E    E     E    E
|----------------------------------------------------|
|----------------------------------------------------|
|-----------------------------------------------5----|
|------------------------------------5h====7----5----|
|-(4)--------------------------------5h====7---------|
|-(2)----2----2--2-2----2----2--2--------------------|


  Gtr IV
   W
|-------------------------------------------|
|-------------------------------------------|
|-------------------------------------------|
|-------------------------------------------|
|-------------------------------------------|
|-------------------------------------------|
|
| Gtr III
|  |--3---|  |--3---|  |---3---|  |---3---|
|  E   E  E  E   E  E  E  E    E  E  E    E
|-22p=14----22p=14----22p14------22p14------|
|--------14--------14---------14---------14-|
|-------------------------------------------|
|-------------------------------------------|
|-------------------------------------------|
|-------------------------------------------|
|
| Gtrs I, II
|  ~~~                 PM              ~~~~~~
| +Q         Q         E    E     E    E
|-------------------------------------------|
|-------------------------------------------|
|-(5)---------------------------------------|
|-(5)--------7\-------------4-----5----4----|
|------------7\-----------------------------|
|----------------------0--------------------|


                                        \2____/0_______|
   H                      Q          S  a    +S       +E
|-------------------------------------------------------------||
|-------------------------------------------------------------||
|-------------------------------------------------------------||
|--------------------------------------16---(16)-----(16)-----||
|-------------------------------------------------------------||
|-------------------------------------------------------------||
|
|  |---3----|  |---3---|  |---3---|  |----------3----------|
|  E   E    E  E  E    E  E  E    E  E             E       E
|-24p=14------24p14------24p14------24p===========14----------||
|----------14---------14---------14-----------------------14--||
|-------------------------------------------------------------||
|-------------------------------------------------------------||
|-------------------------------------------------------------||
|-------------------------------------------------------------||
|
|~~~~~                                                 ~~~~
| +E     E     E    E     E    E     E                 E
|-------------------------------------------------------------||
|-------------------------------------------------------------||
|------------------------------------------------------5------||
|-(4)--------------------------------------------------5------||
|--------7-----4---------------5-----7------------------------||
|-------------------8-----7-----------------------------------||


 Guitar Solo (Drover)
  N.C.            F#G5   F#5
    ~~~~~~~~~~~~~~~~~~~~~
                          |--3--|
   +H.               +E   S  S  S
|------------------------------21-|
|---------------------------19----|
|------------------------18-------|
|-(16)--------------(16)----------|
|---------------------------------|
|---------------------------------|
|
|   H        +Q       Q
|--14-------(14)\-----------------|
|--14-------(14)\-----------------|
|---------------------------------|
|---------------------------------|
|---------------------------------|
|---------------------------------|
|
|   ~~~~      PM----|
|  +Q   Q     E   E   E   E
|---------------------------------|
|---------------------------------|
|--(5)----------------------------|
|--(5)--7\------------------------|
|-------7\--------4---5---4-------|
|-------------0---2---3---2-------|


                                   N.C.
                           |--3--|
   S   S  E    S  S  E     S  S  S  S  S  S  S  E
|-17-------------21s24\---21p17----------21p17----|
|-----19------19----------------19----19-------19-|
|--------18------------------------18-------------|
|-------------------------------------------------|
|-------------------------------------------------|
|-------------------------------------------------|
|
|  W
|-------------------------------------------------|
|-------------------------------------------------|
|-------------------------------------------------|
|-------------------------------------------------|
|-------------------------------------------------|
|-------------------------------------------------|
|
|         PM--------------|                     ~~
| +E      S S  S  S  S  S  E        E     E     E
|-------------------------------------------------|
|-------------------------------------------------|
|-----------------------------------------------5-|
|-----------------------------------5h====7-----5-|
|-(4)-------------------------------5h====7-------|
|-(2)-----2-2--2--2--2--2--2----------------------|


                               F#5G5    F#5
  Gtr IV
                                         |--3--|
   S   S  S  S  E   S  S  S  S  E  S  S  S  S  S
|--------21p17-----------21p17----------21-------|
|-----19-------19-----19-------19----19----19s17-|
|-18---------------18-------------18-------------|
|------------------------------------------------|
|------------------------------------------------|
|------------------------------------------------|
|
| Gtrs I, II
|  ~~~                    PM
| +Q            Q         E     E  E     E
|------------------------------------------------|
|------------------------------------------------|
|-(5)---------------------------6s=7-----6-------|
|-(5)-----------7\--------------4s=5-----4-------|
|---------------7\-------------------------------|
|-------------------------0----------------------|


                              N.C.
          ~~~~~~~~~~~~~~~~~~~~
   S   S  E    +Q         +E   +E   E  E
|--------20---(20)-------(20)-(20)\--------|
|-20--------------------------------x------|
|-----18----------------------------x-(5)/-|
|------------------------------------------|
|------------------------------------------|
|------------------------------------------|
|
|         PM-------------|
| +E      S S   S  S S S   E    E   E  E
|------------------------------------------|
|------------------------------------------|
|-(6)----------------------------------5---|
|-(4)-----4-4---4--4-4-4---4----5h==7--5---|
|-------------------------------5h==7------|
|------------------------------------------|


                                          F#5      G5    F#5
   |------6-------|               |------6-------|
   S  S  S  S  S  S  S   S  S  S  S  S  S  S  S  S  S  S  S  S
|----------14h16h17p16p=14----------------14h16h17p16p14-------|
|--------------------------------------------------------------|
|-14h16h17-----------------17-16-14h16h17----------------17-16-|
|--------------------------------------------------------------|
|--------------------------------------------------------------|
|--------------------------------------------------------------|
|
|  ~~~                            PM---------------|
|  Q                 Q            E        E        E     E
|--------------------------------------------------------------|
|--------------------------------------------------------------|
|--5-----------------------------------------------------------|
|--5-----------------7\----------------------------------------|
|--------------------7\--------------------4--------5-----4----|
|---------------------------------0--------2--------3-----2----|


                                         N.C.
   |--------6--------|
   S   S  S  S  S    S  S  S  S  S  S  S  E  S  T  T  T  T  S
|-----------14h16h==17p16p14------------------------------------|
|---------------------------------------------------------------|
|-14h=16h17------------------17-16-14s13------------------------|
|----------------------------------------14-16h17h19-17p16p14---|
|---------------------------------------------------------------|
|---------------------------------------------------------------|
|
|            PM--------------------|                  ~~~
| +E         S    S     S  S  S  S  E     E  E        E
|---------------------------------------------------------------|
|---------------------------------------------------------------|
|-----------------------------------------------------5---------|
|-----------------------------------------5h=7--------5---------|
|-(4)-------------------------------------5h=7------------------|
|-(2)--------2----2-----2--2--2--2--2---------------------------|


                                                    ~~~~~
                                    |--3---|
   T   T  T  T  S  S  S   S  S  S  +S   S  S  S  S  Q
|-------------------------------------------------------|
|-------------------------------------------------------|
|-------------------------------------------------------|
|-16h=17h19-17p16p14------------------------------------|
|--------------------16p=14-16-15-(15)p14---------------|
|-----------------------------------------17-14h17-14---|
|
|  ~~~                              PM
| +Q                  Q             E         E     E E
|-------------------------------------------------------|
|-------------------------------------------------------|
|-(5)---------------------------------------------------|
|-(5)-----------------7\----------------------4-----5-4-|
|---------------------7\--------------------------------|
|-----------------------------------0-------------------|


 ~~~~~~
   +H         +H
|------------------------||
|------------------------||
|------------------------||
|------------------------||
|------------------------||
|-(14)-------(14)\-------||
|
|  +E  E E E   E   E E E
|------------------------||
|------------------------||
|------------------------||
|--(4)-2-----------------||
|--------4-3---2---------||
|------------------5-2-0-||


 Out-Verse
  N.CE#F#5         A5F#5             A5    N.F#5
   W                      +H          +Q     E  E
|----------------------|--------------------------|
|-10-------------------|-(10)--------(10)\-----12-|
|--9-------------------|--(9)---------(9)\-----11-|
|----------------------|--------------------------|
|----------------------|--------------------------|
|----------------------|--------------------------|
|
|  PM--|       PM--------|       PM----------------
|  E E E E +E  S S E E     E  Q  S S   E   E E  E
|----------------------|--------------------------|
|----------------------|--------------------------|
|----------------------|--------------------------|
|----------------------|--------------------------|
|--0-3-4-4-(4)-----7-4-|---4--4--------7---0-4--4-|
|--0-1-2-2-(2)-0-0-5-2-|---2--2--0-0---5---0-2--2-|


  N.C. E#F#5         A5F#5             A5    N.F#5
   +W                       +H          +Q     E  E
|------------------------|---------------------------|
|-(12)-------------------|-(12)--------(12)\-----13--|
|-(11)-------------------|-(11)--------(11)\-----12--|
|------------------------|---------------------------|
|------------------------|---------------------------|
|------------------------|---------------------------|
|
|--------|       PM--------|       PM------------|
|   E  E E E +E  S S E E     E  Q  S S   E   E E  E
|------------------------|---------------------------|
|------------------------|---------------------------|
|------------------------|---------------------------|
|------------------------|---------------------------|
|---0--3-4-4-(4)-----7-4-|---4--4--------7---0-4--4--|
|---0--1-2-2-(2)-0-0-5-2-|---2--2--0-0---5---0-2--2--|


  N.C. E#F#5         A5F#5             A5N.F#5
   +W                       +H.             +E   E
|------------------------|-------------------------|
|-(13)-------------------|-(13)------------(13)-15-|
|-(12)-------------------|-(12)------------(12)-14-|
|------------------------|-------------------------|
|------------------------|-------------------------|
|------------------------|-------------------------|
|
|   PM---|       PM--------|       PM---------------
|   E  E E E +E  S S E E     E  Q  S S E E   E   E
|------------------------|-------------------------|
|------------------------|-------------------------|
|------------------------|-------------------------|
|------------------------|-------------------------|
|---0--3-4-4-(4)-----7-4-|---4--4------7-0---4---4-|
|---0--1-2-2-(2)-0-0-5-2-|---2--2--0-0-5-0---2---2-|


  N.C. E#F#5         A5   F#5              A5N.F#5
   +H.                +E   E    +H.             +Q
|----------------------------|--------------------------||
|-(15)---------------(15)-16-|-(16)------------(16)\----||
|-(14)---------------(14)-15-|-(15)------------(15)\----||
|----------------------------|--------------------------||
|----------------------------|--------------------------||
|----------------------------|--------------------------||
|
|--------|       PM------------|       PM------------|
|   E  E E E +E  S S   E   E     E  Q  S S E E   E   E
|----------------------------|--------------------------||
|----------------------------|--------------------------||
|----------------------------|--------------------------||
|----------------------------|--------------------------||
|---0--3-4-4-(4)-------7---4-|---4--4------7-0---4---4--||
|---0--1-2-2-(2)-0-0---5---2-|---2--2--0-0-5-0---2---2--||


   Guitar Solo Mustaine)
    N.C.  E#5   F#5                      A5    F#5
     S  S  S  S  S  S  S  S  S   S  S  S  S  S  S  S
||---------------------------------------------------|
||o-17p14----14-17p14-17p14-----14-17p14-17p14----14-|
||--------17----------------17-----------------17----|
||---------------------------------------------------|
||o--------------------------------------------------|
||---------------------------------------------------|
|
|    PM---------|                   PM----------------
|    E     E     E     E    +E      S  S  E     E
||---------------------------------------------------|
||o--------------------------------------------------|
||---------------------------------------------------|
||---------------------------------------------------|
||o--0-----3-----4-----4----(4)-----------7-----4----|
||---0-----1-----2-----2----(2)-----0--0--5-----2----|


                          A5    N.C.  F#5
   S  S  S  S  S  S  S  S  S  S  S  S  S  S  S  S
|-------------------------------------------------|
|-17p14----14-17p14-17p14----14-17p14-17p14----14-|
|-------17----------------17----------------17----|
|-------------------------------------------------|
|-------------------------------------------------|
|-------------------------------------------------|
|
|-|                  PM---------------------|
|  E     Q           S  S  E     E     E     E
|-------------------------------------------------|
|-------------------------------------------------|
|-------------------------------------------------|
|-------------------------------------------------|
|--4-----4-----------------7-----0-----4-----4----|
|--2-----2-----------0--0--5-----0-----2-----2----|


  1.
  N.C.  E#5   F#5                      A5    F#5
   S  S  S  S  S  S  S  S  S   S  S  S  S  S  S  S
|--------------------------------------------------|
|-19p14----14-19p14-19p14-----14-19p14-19p14----14-|
|-------17----------------17-----------------17----|
|--------------------------------------------------|
|--------------------------------------------------|
|--------------------------------------------------|
|
|  PM---------|                   PM----------------
|  E     E     E     E    +E      S  S  E     E
|--------------------------------------------------|
|--------------------------------------------------|
|--------------------------------------------------|
|--------------------------------------------------|
|--0-----3-----4-----4----(4)-----------7-----4----|
|--0-----1-----2-----2----(2)-----0--0--5-----2----|


                          A5    N.C.  F#5
   S  S  S  S  S  S  S  S  S  S  S  S  S  S  S  S
|---------------------------------------------------||
|-19p14----14-19p14-19p14----14-19p14-19p14----14--o||
|-------17----------------17----------------17------||
|---------------------------------------------------||
|--------------------------------------------------o||
|---------------------------------------------------||
|
|-|                  PM---------------------|
|  E     Q           S  S  E     E     E     E
|---------------------------------------------------||
|--------------------------------------------------o||
|---------------------------------------------------||
|---------------------------------------------------||
|--4-----4-----------------7-----0-----4-----4-----o||
|--2-----2-----------0--0--5-----0-----2-----2------||


  2.
  N.C.  E#5   F#5                      A5    F#5
   S  S  S  S  S  S  S  S  S   S  S  S  S  S  S  S
|--------------------------------------------------|
|-19p14----14-19p14-19p14-----14-19p14-19p14----14-|
|-------17----------------17-----------------17----|
|--------------------------------------------------|
|--------------------------------------------------|
|--------------------------------------------------|
|
|  PM---------|                   PM----------------
|  E     E     E     E    +E      S  S  E     E
|--------------------------------------------------|
|--------------------------------------------------|
|--------------------------------------------------|
|--------------------------------------------------|
|--0-----3-----4-----4----(4)-----------7-----4----|
|--0-----1-----2-----2----(2)-----0--0--5-----2----|


                          A5    N.C.  F#5
   S  S  S  S  S  S  S  S  S  S  S  S  S  S S S
|------------------------------------------------|
|-19p14----14-19p14-19p14----14-19p14-17-17-x-x--|
|-------17----------------17---------------------|
|------------------------------------------------|
|------------------------------------------------|
|------------------------------------------------|
|
|-|                  PM---------------------|
|  E     Q           S  S  E     E     E    E
|------------------------------------------------|
|------------------------------------------------|
|------------------------------------------------|
|------------------------------------------------|
|--4-----4-----------------7-----0-----4----4----|
|--2-----2-----------0--0--5-----0-----2----2----|


    N.C.     E#5     F#5                         A5       F#5
     Q           a    E  E        +E    a    E    Q
||----------------------------------------------------------|
||o-14b14.5====(14)r----14b14.5==(14)-(14)r------14b14.5====|
||--14b14.5====(14)r----14b14.5==(14)-(14)r------14b14.5====|
||-------------------16---------------------16--------------|
||o---------------------------------------------------------|
||----------------------------------------------------------|
|
|    PM--------------|                       PM--------------
|    E       E        E  E        +E         S S  E       E
||----------------------------------------------------------|
||o---------------------------------------------------------|
||----------------------------------------------------------|
||----------------------------------------------------------|
||o--0-------3--------4--4--------(4)-------------7-------4-|
||---0-------1--------2--2--------(2)--------0-0--5-------2-|


                                A5 N.C.  F#5
    a    E  Q          a    E    E  S  S  E  E  3x
|-----------------------------------------------||
|-(14)r----14b14.5===(14)r------------------14-o||
|-(14)r----14b14.5===(14)r------17p16p14----14--||
|-------16-----------------16------------16-----||
|----------------------------------------------o||
|-----------------------------------------------||
|
|-------|                   PM--------------|
|        E  Q               S S  E  E     E  E  3x
|-----------------------------------------------||
|----------------------------------------------o||
|-----------------------------------------------||
|-----------------------------------------------||
|--------4--4--------------------7--0-----4--4-o||
|--------2--2---------------0-0--5--0-----2--2--||


  N.C.     E#5     F#5                         A5       F#5
   Q           a    E  E        +E    a    E    Q
|---------------------------------------------------------|
|-14b14.5====(14)r----14b14.5==(14)-(14)r------14b14.5====|
|-14b14.5====(14)r----14b14.5==(14)-(14)r------14b14.5====|
|------------------16---------------------16--------------|
|---------------------------------------------------------|
|---------------------------------------------------------|
|
|  PM--------------|                       PM--------------
|  E       E        E  E        +E         S S  E       E
|---------------------------------------------------------|
|---------------------------------------------------------|
|---------------------------------------------------------|
|---------------------------------------------------------|
|--0-------3--------4--4--------(4)-------------7-------4-|
|--0-------1--------2--2--------(2)--------0-0--5-------2-|


                                A5 N.C.  F#5
    a    E  Q          a    E    E  S  S  E  S  S
|----------------------------------------------14-|
|-(14)r----14b14.5===(14)r------------------17----|
|-(14)r----14b14.5===(14)r------17p16p14-17-------|
|-------16-----------------16---------------------|
|-------------------------------------------------|
|-------------------------------------------------|
|
|-------|                   PM--------------|
|        E  Q               S S  E  E     E  E
|-------------------------------------------------|
|-------------------------------------------------|
|-------------------------------------------------|
|-------------------------------------------------|
|--------4--4--------------------7--0-----4--4----|
|--------2--2---------------0-0--5--0-----2--2----|


    N.C.  E#5   F#5                      A5    F#5
     S  S  S  S  S  S  S  S  S   S  S  S  S  S  S  S
||--17p14----14-17p14----14-17p=14----14-17p14----14-|
||o-------17----------17-----------17----------17----|
||---------------------------------------------------|
||---------------------------------------------------|
||o--------------------------------------------------|
||---------------------------------------------------|
|
|    PM---------|                   PM----------------
|    E     E     E     E    +E      S  S  E     E
||---------------------------------------------------|
||o--------------------------------------------------|
||---------------------------------------------------|
||---------------------------------------------------|
||o--0-----3-----4-----4----(4)-----------7-----4----|
||---0-----1-----2-----2----(2)-----0--0--5-----2----|


                          A5    N.C.  F#5
   S  S  S  S  S  S  S  S  S  S  S  S  S  S  S  S
|-17p14----14-17p14----14-17p14----14-17p14----14-|
|-------17----------17----------17----------17----|
|-------------------------------------------------|
|-------------------------------------------------|
|-------------------------------------------------|
|-------------------------------------------------|
|
|-|                  PM---------------------|
|  E     Q           S  S  E     E     E     E
|-------------------------------------------------|
|-------------------------------------------------|
|-------------------------------------------------|
|-------------------------------------------------|
|--4-----4-----------------7-----0-----4-----4----|
|--2-----2-----------0--0--5-----0-----2-----2----|


  N.C.  E#5   F#5                      A5    F#5
   S  S  S  S  S  S  S  S  S   S  S  S  S  S  S  S
|-19p14----14-19p14----14-19p=14----14-19p14----14-|
|-------17----------17-----------17----------17----|
|--------------------------------------------------|
|--------------------------------------------------|
|--------------------------------------------------|
|--------------------------------------------------|
|
|  PM---------|                   PM----------------
|  E     E     E     E    +E      S  S  E     E
|--------------------------------------------------|
|--------------------------------------------------|
|--------------------------------------------------|
|--------------------------------------------------|
|--0-----3-----4-----4----(4)-----------7-----4----|
|--0-----1-----2-----2----(2)-----0--0--5-----2----|


                          A5    N.C.  F#5
   S  S  S  S  S  S  S  S  S  S  S  S  S  S  S  S
|-19p14----14-19p14----14-19p14----14-19p14----14---||
|-------17----------17----------17----------17-----o||
|---------------------------------------------------||
|---------------------------------------------------||
|--------------------------------------------------o||
|---------------------------------------------------||
|
|-|                  PM---------------------|
|  E     Q           S  S  E     E     E     E
|---------------------------------------------------||
|--------------------------------------------------o||
|---------------------------------------------------||
|---------------------------------------------------||
|--4-----4-----------------7-----0-----4-----4-----o||
|--2-----2-----------0--0--5-----0-----2-----2------||


    N.C.  E#5   F#5                      A5    F#5
     S  S  S  S  S  S  S  S  S   S  S  S  S  S  S  S
||--19p14-17p14----14-19p14-17p=14----14-19p14-17p14-|
||o-------------17-----------------17----------------|
||---------------------------------------------------|
||---------------------------------------------------|
||o--------------------------------------------------|
||---------------------------------------------------|
|
|    PM---------|                   PM----------------
|    E     E     E     E    +E      S  S  E     E
||---------------------------------------------------|
||o--------------------------------------------------|
||---------------------------------------------------|
||---------------------------------------------------|
||o--0-----3-----4-----4----(4)-----------7-----4----|
||---0-----1-----2-----2----(2)-----0--0--5-----2----|


                          A5    N.C.  F#5
   S  S  S  S  S  S  S  S  S  S  S  S  S  S  S  S
|----14-19p14-17p14----14-19p14-17p14----14-19p14-|
|-17----------------17----------------17----------|
|-------------------------------------------------|
|-------------------------------------------------|
|-------------------------------------------------|
|-------------------------------------------------|
|
|-|                  PM---------------------|
|  E     Q           S  S  E     E     E     E
|-------------------------------------------------|
|-------------------------------------------------|
|-------------------------------------------------|
|-------------------------------------------------|
|--4-----4-----------------7-----0-----4-----4----|
|--2-----2-----------0--0--5-----0-----2-----2----|


  N.C.  E#5   F#5                      A5    F#5
   S  S  S  S  S  S  S  S  S   S  S  S  S  S  S  S
|-17p14----14-19p14-17p14-----14-19p14-17p14----14-|
|-------17----------------17-----------------17----|
|--------------------------------------------------|
|--------------------------------------------------|
|--------------------------------------------------|
|--------------------------------------------------|
|
|  PM---------|                   PM----------------
|  E     E     E     E    +E      S  S  E     E
|--------------------------------------------------|
|--------------------------------------------------|
|--------------------------------------------------|
|--------------------------------------------------|
|--0-----3-----4-----4----(4)-----------7-----4----|
|--0-----1-----2-----2----(2)-----0--0--5-----2----|


                          A5    N.C.  F#5
   S  S  S  S  S  S  S  S  S  S  S  S  S  S  S  S
|-19p14-17p14----14-19p14-17p14----14-19p14-17p14--|
|-------------17----------------17-----------------|
|--------------------------------------------------|
|--------------------------------------------------|
|--------------------------------------------------|
|--------------------------------------------------|
|
|-|                  PM---------------------|
|  E     Q           S  S  E     E     E     E
|--------------------------------------------------|
|--------------------------------------------------|
|--------------------------------------------------|
|--------------------------------------------------|
|--4-----4-----------------7-----0-----4-----4-----|
|--2-----2-----------0--0--5-----0-----2-----2-----|


  N.C.  E#5   F#5                      A5    F#5
   S  S  S  S  S  S  S  S  S   S  S  S  S  S  S  S
|----14-19p14-17p14----14-19p=14-17p14----14-19p14-|
|-17----------------17-----------------17----------|
|--------------------------------------------------|
|--------------------------------------------------|
|--------------------------------------------------|
|--------------------------------------------------|
|
|  PM---------|                   PM----------------
|  E     E     E     E    +E      S  S  E     E
|--------------------------------------------------|
|--------------------------------------------------|
|--------------------------------------------------|
|--------------------------------------------------|
|--0-----3-----4-----4----(4)-----------7-----4----|
|--0-----1-----2-----2----(2)-----0--0--5-----2----|


                          A5    N.C.  F#5
   S  S  S  S  S  S  S  S  S  S  S  S  S  S  S  S      Q    Q    H
|-17p14----14-19p14-17p14----14-19p14-17p14----14--||-----------------*|
|-------17----------------17----------------17----o||-19\-------------*|
|--------------------------------------------------||-----------------*|
|--------------------------------------------------||-----------------*|
|-------------------------------------------------o||-----------------*|
|--------------------------------------------------||-----------------*|
|
|-|                  PM-------------------------------|
|  E     Q           S  S  E     E     E     E         Q   +Q    H
|--------------------------------------------------||-----------------*|
|-------------------------------------------------o||-----------------*|
|--------------------------------------------------||-----------------*|
|--------------------------------------------------||-----------------*|
|--4-----4-----------------7-----0-----4-----4----o||--4---(4)\-------*|
|--2-----2-----------0--0--5-----0-----2-----2-----||--2---(2)\-------*|



Duration Legend
---------------
W - whole; H - half; Q - quarter; E - 8th; S - 16th; T - 32nd; X - 64th; a - acciaccatura
+ - note tied to previous; . - note dotted; .. - note double dotted
Uncapitalized letters represent notes that are staccato (1/2 duration)
Irregular groupings are notated above the duration line
Duration letters will always appear directly above the note/fret number it represents the
duration for.  Duration letters with no fret number below them represent rests.  Multi-
bar rests are notated in the form Wxn, where n is the number of bars to rest for.  Low
melody durations appear below the staff

Tablature Legend
----------------
 h   - hammer-on
 p   - pull-off
 b   - bend
 pb  - pre-bend
 r   - bend release (if no number after the r, then release immediately)
 /\  - slide into or out of (from/to "nowhere")
 s   - legato slide
 S   - shift slide
 - natural harmonic
[n]  - artificial harmonic
n(n) - tapped harmonic
 ~   - vibrato
 tr  - trill
 T   - tap
 TP  - trem. picking
 PM  - palm muting
\n/  - tremolo bar dip; n = amount to dip
 \n  - tremolo bar down
 n/  - tremolo bar up
/n\  - tremolo bar inverted dip
 =   - hold bend; also acts as connecting device for hammers/pulls
 <> - volume swell (louder/softer)
 x   - on rhythm slash represents muted slash
 o   - on rhythm slash represents single note slash

Misc Legend
-----------
 |  - bar
||  - double bar
||o - repeat start
o|| - repeat end
*|  - double bar (ending)
 :  - bar (freetime)
 $  - Segno
 &  - Coda
Tempo markers -  = BPM(8/16=s8/s16), where s8 = swing 8ths, s16 = swing 16ths


            
            
Suggest correction
Creating personal tab
Creating personal tab
You can edit any tab online and save it as your Personal.

You can edit, replace or remove any tab part or add personal notes – all changes will be seen only by you.

Personal tabs can be accessed anytime from any device, even offline.
Learn more »
Give kudos to tab author, rate the tab!
1 2 3 4 5
comments
print report bad tab
guest
You may want to rate the tab now too:
select rating
Wanna post a correction for this tab? Suggest correction