Oops, an error
Loading. Please wait.

Dystopia guitar pro

version 1
version 1

Whole song

Interactive

11,938 views 54 this week
3 commentsread comments
1 2 3 4 5
x 19
add to favorites
guitar tuner
Autoscroll
slow
fast
+/-
esc
set tempo
stop
"Dystopia"
demo version
Play now

or get full version for Free

×
Get full version now!
Learn and play this song
in Tab Pro
Try for free

or get $10 off Welcome Bonus

Get welcome bonus
Get access to Tab Pro version of “Dystopia”!
Tab Pro is a premium guitar tab service, available on PC, Mac, iOS and Android
TRY FOR FREE
To download “Dystopia” Guitar Pro tab click button below
Please note that you must have Guitar Pro software installed on your
computer in order to view this file.
Suggest correction
comments
report bad tab
3 comments total.
0 reply
jimbojones5678 75 Feb 10, 2016 03:07 AM

So good - cheers! A++++

0 reply
christeece 13 Feb 29, 2016 11:17 AM

Im pretty sure that Dave made the intro like a descending hangar 18 just with different chords like this.

E|-5-----------------------------3-----------------------------5----------
B|-6-----------------------------5-----------------------------6-----------
G|-7-----------------------------5-----------------------------4----------
D|---0-0-0-0-0-0-0-0-0-0-0-0-0-0---0-0-0-0-0-0-0-0-0-0-0-0-0-0---0-0-0-0-0
A|------------------------------------------------------------------------
E|-----------------------------------------------------------------------

E|-------------------3---------------------------
B|-------------------5----------------------------
G|-------------------3----------------------------
D|-0-0-0-0-0-0-0-0-0---0-0-0-0-0-0-0-0-0-0-0-0-0-0
A|------------------------------------------------
E|------------------------------------------------

0 reply
msadam 10 Apr 18, 2016 08:34 PM, edited on April 19 2016, 12:35 am

my thoughts too :) hold the chords (sustain the chords) while strumming the open note

guest
You may want to rate the tab now too:
select rating