Oops, an error
Loading. Please wait.

Family Tree tab

version 3
version 3

Whole song

Interactive

2,317 views 1 this week
no commentswrite comment
1 2 3 4 5
2 more votes to show rating
add to favorites
×
Save as Personal and add changes to this tab that will be seen only by you. Learn more ›
×
You can save this tab as Personal to edit and correct it or add notes. All changes will be seen only by you. Learn more »
launch autoscroll
font size
0
reset
how to read this tab
guitar tuner
backing track
0:00
0:00
edit
Autoscroll
slow
fast
+/-
esc
set tempo
stop
#----------------------------------PLEASE NOTE---------------------------------#
#This file is the author's own work and represents their interpretation of the #
#song. You may only use this file for private study, scholarship, or research. #
#------------------------------------------------------------------------------#

FAMILY TREE
As recorded by Megadeth
(From the 1994 Album YOUTHANASIA)

Transcribed by /\X/\M
	

Words by Dave Mustaine Music by Dave Mustaine, David Ellefson, Nick Menza

C5
x 3 5 5 x x
	
E5
0 2 2 x x x
	
B5
x 2 4 4 x x
	
B5XIV
x 14 16 16 x x

G5
3 5 5 x x x
	
A5
5 7 7 x x x
	
E5II
x x 2 4 5 x
	
G5V
x x 5 7 8 x

A5VII
x x 7 9 10 x
	
C5X
x x 10 12 13 x
	
B5IX
x x 9 11 12 x

Gtr I (Eb Ab Db Gb Bb Gb) - 'Untitled'
Gtr II (Eb Ab Db Gb Bb Gb) - 'Untitled'
Gtr III (Eb Ab Db Gb Bb Gb) - 'Untitled'
Gtr IV (Eb Ab Db Gb Bb Gb) - 'Untitled'
Gtr V (Eb Ab Db Gb Bb Gb) - 'Untitled'

   Intro
    Moderate Rock Q=123
   4/4
    Gtrs I, II
     E. S +E  E +Q.   E    E. S +E  E +Q.   E
||------------0-(0)------|----------0-(0)------|
||o----------------------|---------------------|
||------9-(9)------------|----7-(7)------------|
||--/9----------------9\-|-7----------------7\-|
||o----------------------|---------------------|
||-----------------------|---------------------|


                        1.                      2.
  E. S +E  E +Q.   E    E. S +E  E +Q.   E      E. S +E  E +Q.   E
|----------0-(0)------|----------0-(0)-------||----------0-(0)-------|
|---------------------|---------------------o||----------------------|
|----5-(5)------------|----7-(7)-------------||----7-(7)-------------|
|-5----------------5/-|-7----------------7/--||-7----------------7\--|
|---------------------|---------------------o||----------------------|
|---------------------|----------------------||----------------------|


                                        PM|
  E. S +E  E +H        Q.   E +E      E E E
|----------0-(0)----|-^0--------------------|
|-------------------|-^0--------------------|
|----4-(4)----------|-^4--------------------|
|-4-----------------|-^4----5-(5)b5.5-2-----|
|-------------------|-----------------------|
|-------------------|-------------------3-2-|


  W          +W           +W           +H.      +E  E
|----------|------------|------------|-----------------||
|----------|------------|------------|-----------------||
|----------|------------|------------|-----------------||
|-2--------|-(2)--------|-(2)--------|-(2)------(2)-x--||
|-2--------|-(2)--------|-(2)--------|-(2)------(2)-x--||
|-0--------|-(0)--------|-(0)--------|-(0)------(0)-x--||


   Verse
    W          +W           +W           Wx5
||-----------|------------|------------|--------|
||o----------|------------|------------|--------|
||-----------|------------|------------|--------|
||--2--------|-(2)--------|-(2)--------|--------|
||o-2--------|-(2)--------|-(2)--------|--------|
||--0--------|-(0)--------|-(0)--------|--------|


                             PM    ~          PM                   PM     ~~
  E E E E E  E E E   E a E E E E E Q    E E E E E  E E E   E a E E E E E  Q
|------------------|------------------|------------------|-------------------|
|------------------|------------------|------------------|-------------------|
|------------4-----|------------------|------------4-----|----------------4--|
|---5-5---7------5-|---5h7-5---7---5--|---7-5---7------5-|---5h7-5---7-------|
|---7-7---9-10---7-|---7h9-7-7-9---7--|---9-7-7-9-10---7-|---7h9-7-7-9---10--|
|------------------|---------8--------|-------8----------|---------8---------|


        PM                   PM    ~          PM                 PM    ~
  E E E E E  E E E   E a E E E E E Q    E E E E E  E E E   E E E E E E Q
|------------------|------------------|------------------|-----------------||
|------------------|------------------|------------------|-----------------||
|------------4-----|------------------|------------4-----|-----------------||
|---5-5---7------5-|---5h7-5---7---5--|---7-5---7------5-|---5-4---5---4---||
|---7-7-7-9-10---7-|---7h9-7-7-9---7--|---9-7-7-9-10---7-|---7-6-7-7---6---||
|-------8----------|---------8--------|-------8----------|-------7---------||


 Pre-Chorus
  C5                                E5
  Gtrs I, II
   W             e e e E +E E e e    Q           e        e   e     e     e  e
   |             | | | |  | | | |    |           |        |   |     |     |  |
   /             / / / o  / o o o    /           /        /   /     /     /  /

  Gtr III
   ~~~~~~~~~~~~~~~~~~~~~~~~~~~~~~~~~~~~~~~~~~~~~~~~~~~~~~~~~~~~~~~~~~~~~~~~~~~~~~~~
   H     H       H        H          W
|-------------|-------------------|-----------------------------------------------|
|-13----12----|-------------------|-----------------------------------------------|
|-------------|-14-------12-------|-----------------------------------------------|
|-------------|-------------------|-14--------------------------------------------|
|-------------|-------------------|-----------------------------------------------|
|-------------|-------------------|-----------------------------------------------|
|
| Gtr IV
|                                                                   ~~~~~~
|  W             W                   H                        E     Q.
|-------------|-------------------|-----------------------------------------------|
|-------------|-------------------|--------------------------15b17-15b17==========|
|-------------|-------------------|-----------------------------------------------|
|-------------|-------------------|-----------------------------------------------|
|-------------|-------------------|-----------------------------------------------|
|-------------|-------------------|-----------------------------------------------|
|
| Gtr V
|                                                             ~~~~~~
|                                       |--3--|  |--3--|
|  W             W                   E  S  S  S  S  S  S  E  +Q.             E
|-------------|-------------------|-------------------15-17-(17)------------15b17-|
|-------------|-------------------|----------------17-----------------------------|
|-------------|-------------------|-------------16--------------------------------|
|-------------|-------------------|----------17-----------------------------------|
|-------------|-------------------|----14h19--------------------------------------|
|-------------|-------------------|-----------------------------------------------|


                                                   C5
    e        e     e      e      e        e   e     E
    |        |     |      |      |        |   |     |
    /        /     /      /      /        /   /     /

 ~~~~~~~
   +W
|---------------------------------------------------------|
|---------------------------------------------------------|
|---------------------------------------------------------|
|-(14)----------------------------------------------------|
|---------------------------------------------------------|
|---------------------------------------------------------|
|
|                                         ~~~
|                                |--3--|
|  +S   +S   S  S  E      S   S  S  S  S  Q.
|---------------------------------------------------------|
|-(15)r(15)-15-13-12--------------------------------------|
|------------------------14--12-11h12p11------------------|
|----------------------------------------14---------------|
|---------------------------------------------------------|
|---------------------------------------------------------|
|
|                                                   ~~~~~~
|                                |--3--|
|  +Q              E     +E      S  S  S  E   E     E
|-(15)------------14b15r(14)----12-15-12------------------|
|----------------------------------------12--15b17-15b17==|
|---------------------------------------------------------|
|---------------------------------------------------------|
|---------------------------------------------------------|
|---------------------------------------------------------|


   +W                       e   e e E +E E e e
    |                       |   | | |  | | | |
    /                       /   / / o  / o o o

    ~~~~~~~~~~~~~~~~~~~~~~~~~~~~~~~~~~~~~~~~~~~~
    H      H                H          H
|-----------------------|----------------------|
|--13-----12------------|----------------------|
|-----------------------|--14---------12-------|
|-----------------------|----------------------|
|-----------------------|----------------------|
|-----------------------|----------------------|
|
|   ~~~~
|  +W                      +Q     Q    H
|-----------------------|----------------------|
|-----------------------|----------------------|
|-----------------------|----------------------|
|-(14)------------------|-(14)\----------------|
|-----------------------|----------------------|
|-----------------------|----------------------|
|
|   ~~~~~~~~~~~~~~~~
|  +H.         +E   +E     +H          H
|-----------------------|----------------------|
|-(15)--------(15)r(15)-|-(15)\----------------|
|-----------------------|----------------------|
|-----------------------|----------------------|
|-----------------------|----------------------|
|-----------------------|----------------------|


  B5                     B5XIV
   W                      E  E  E  E  E  E  E  E
   |                      |  |  |  |  |  |  |  |
   /                      /  /  /  /  /  /  /  /

 ~~~~~
   H.       +E    S  S    E  E  E  E  E  E  E  E
|----------------------|--------------------------||
|---------------/16-16-|-16-16-16-16-16-16-16-16--||
|-11-------(11)-/16-16-|-16-16-16-16-16-16-16-16--||
|---------------/16-16-|-16-16-16-16-16-16-16-16--||
|----------------------|--------------------------||
|----------------------|--------------------------||
|
|  W                      W
|----------------------|--------------------------||
|----------------------|--------------------------||
|----------------------|--------------------------||
|----------------------|--------------------------||
|----------------------|--------------------------||
|----------------------|--------------------------||
|
|  W                      W
|----------------------|--------------------------||
|----------------------|--------------------------||
|----------------------|--------------------------||
|----------------------|--------------------------||
|----------------------|--------------------------||
|----------------------|--------------------------||


 Chorus
  Gtrs I, II
     PM|       PM        PM--|     PM
  Q  E E  E  E E E   +E  E E E E E E E
|------------------|-------------------|
|------------------|-------------------|
|-9----------------|-------------------|
|-9------12-11---9-|-(9)-------8-----9-|
|-7------10--9---7-|-(7)-------6-9---7-|
|----0-0-------0---|-----0-0-0---7-0---|


       PM|       PM        PM|                 PM|       PM
  +Q   E E  E  E E E   +E  E E  E  +H       Q  E E  E  E E E
|--------------------|--------------------|------------------|
|--------------------|--------------------|------------------|
|--------------------|--------------------|-9----------------|
|-(9)------12-11---9-|-(9)-----10-(10)----|-9------12-11---9-|
|-(7)------10--9---7-|-(7)-----10-(10)----|-7------10--9---7-|
|------0-0-------0---|-----0-0--8--(8)----|----0-0-------0---|


                      1.
      PM--|     PM         PM|       PM
  +E  E E E E E E E   +Q   E E  E  E E  E    +W
|-------------------|---------------------|--------------||
|-------------------|---------------------|-------------o||
|-------------------|---------------------|--------------||
|-(9)-------8-----9-|-(9)------12-11---10-|-(10)---------||
|-(7)-------6-9---7-|-(7)------10--9---10-|-(10)--------o||
|-----0-0-0---7-0---|------0-0-------0--8-|--(8)---------||


  2.
      PM--|       PM        PM|
   E  E E E  E  E E E   +E  E E  E  +H
|---------------------|--------------------|
|---------------------|--------------------|
|---------------------|--------------------|
|-(9)-------12-11---9-|-(9)-----10-(10)----|
|-(7)-------10--9---7-|-(7)-----10-(10)----|
|-----0-0-0-------0---|-----0-0--8--(8)----|


     PM|       PM        PM--|     PM
  Q  E E  E  E E E   +E  E E E E E E E
|------------------|-------------------|
|------------------|-------------------|
|-9----------------|-------------------|
|-9------12-11---9-|-(9)-------8-----9-|
|-7------10--9---7-|-(7)-------6-9---7-|
|----0-0-------0---|-----0-0-0---7-0---|


       PM|       PM        PM|                 PM|       PM
  +Q   E E  E  E E E   +E  E E  E  +H       Q  E E  E  E E E
|--------------------|--------------------|------------------|
|--------------------|--------------------|------------------|
|--------------------|--------------------|-9----------------|
|-(9)------12-11---9-|-(9)-----10-(10)----|-9------12-11---9-|
|-(7)------10--9---7-|-(7)-----10-(10)----|-7------10--9---7-|
|------0-0-------0---|-----0-0--8--(8)----|----0-0-------0---|


  Gtrs I, II
      PM--|     PM         PM|       PM
  +E  E E E E E E E   +Q   E E  E  E E  E
|-------------------|---------------------|
|-------------------|---------------------|
|-------------------|---------------------|
|-(9)-------8-----9-|-(9)------12-11---10-|
|-(7)-------6-9---7-|-(7)------10--9---10-|
|-----0-0-0---7-0---|------0-0-------0--8-|
|
| Gtr III
|  W                   W
|-------------------|---------------------|
|-------------------|---------------------|
|-------------------|---------------------|
|-------------------|---------------------|
|-------------------|---------------------|
|-------------------|---------------------|


   +W           W
|-------------|-------------------------------------||
|-------------|-------------------------------------||
|-------------|-4-----------------------------------||
|-(10)--------|-4-----------------------------------||
|-(10)--------|-2-----------------------------------||
|--(8)--------|-------------------------------------||
|
|   W           S S S S S S S S S S S S  S  S  S S
|-------------|-----------------------5----------8--||
|-------------|---------------7-----7---------10----||
|-------------|-4h5p4---4s5-8---7h8-----10h11-------||
|-------------|-------7-----------------------------||
|-------------|-------------------------------------||
|-------------|-------------------------------------||


 Guitar Solo
  Gtr III
                    ~~~~~~~~~~~~~~
                                    |--3--|          |--3--|
   Q       +E   +E  H         +E  E E E   E Q       +E   E E
|---------------------------|--------------------------------|
|-10b12===(10)r(10)S5-------|-(5)-5---7---8-8b10====(8)r-8-7-|
|---------------------------|--------------------------------|
|---------------------------|--------------------------------|
|---------------------------|--------------------------------|
|---------------------------|--------------------------------|
|
| Gtrs I, II
|           PM------------|
|  Q        E    E  E E E E    E  E E   E   E     E  Q
|---------------------------|--------------------------------|
|---------------------------|------------------------3-------|
|---------------------------|------------------------2-------|
|--2------------------------|-------0-------------0--0-------|
|--2------------------------|-----0---------2--------0-------|
|--0--------0----0--0-0-0-0-|--2--------3--------------------|


  |----6----|
  S E +S  S S H       +E   E    S  S  S  S  S  S  S  S  S  S  S  S  S  S  S  S
|----------------------------|-12--------------------------------------------------|
|-5s7-(7)p5h7-5-------(5)\-5s|=12-12-15-12-----------------------------------------|
|----------------------------|-------------15-14-12----12s11-----------------------|
|----------------------------|----------------------14-----------------------------|
|----------------------------|-------------------------------14-13-12-10-12-12b13--|
|----------------------------|-----------------------------------------------------|
|
|             PM-----------|
| Q           E E E E  E   E    E     E     E     E     E     E     E     E
|----------------------------|-----------------------------------------------------|
|----------------------------|--------3-----------------3--------------------------|
|-5--------------------------|--------------0-----------------0-----------0--------|
|-5--------------------------|--5-----------------4--------------------------------|
|-3-----------3-3-3-3--3---3-|--------------------------------------5--------------|
|----------------------------|-----------------------------------------------------|


          ~~                ~~
   S.  T  E  +E   E   E  E  E  S  S
|---------------------------------------|
|--------------------15-12--------------|
|--------------------14-12----12-14b16==|
|--------------------------14-----------|
|-12--10----------7/--------------------|
|--------12-(12)\-----------------------|
|
|             PM--------------|
|  Q          E   E   E  E  E  E
|---------------------------------------|
|---------------------------------------|
|---------------------------------------|
|--2------------------------------------|
|--2------------------------------------|
|--0----------0---0---0--0--0--0--------|


                                                      ~~~~~                           ~~
    |----------6----------|    |------6-------|              |--3--|    |----3-----|                |--3--|
   +S    S  S  S  S      +S    S  S  S  S  S  S      +Q      E  E  E    E     +E   E  H        +E   S  S  S
|-------12--------------------12----------------------------12-------|-15b17r(15)-14-15-------(15)\------12--|
|----------15p12-----------------15p12h15p12h15b17==(15)r------15p12-|------------------------------8s15-----|
|-(14)r----------14b16==(14)r----------------------------------------|---------------------------------------|
|--------------------------------------------------------------------|---------------------------------------|
|--------------------------------------------------------------------|---------------------------------------|
|--------------------------------------------------------------------|---------------------------------------|
|
|                                                                                     PM------------|
|   E          E               E        E             E   E  Q          Q             E E E E   E   E
|--------------------------------------------------------------------|---------------------------------------|
|------------------------------------------------------------3-------|---------------------------------------|
|------------------------------------------------------------2-------|--5------------------------------------|
|------------------------------0--------------------------0--0-------|--5------------------------------------|
|--------------0--------------------------------------2------0-------|--3-------------3-3-3-3---3---3--------|
|---2-----------------------------------3----------------------------|---------------------------------------|


                                                ~~~~~
   |------6-------|  |------6-------|  |--3--|
   S  S  S  S  S  S  S  S  S  S  S  S  S  S  S  E  E  +E
|-15-12----------------------------------------------------|
|-------15-12-------15-12----------------------------------|
|-------------14-12-------14-12----------------------------|
|-------------------------------14-12----------------------|
|-------------------------------------14-12s10-12-14-(14)\-|
|----------------------------------------------------------|
|
|  E        E        E        E        E        E  E   E
|----------------------------------------------------------|
|-----------3--------------------------3-------------------|
|--------------------0--------------------------0------0---|
|--5--------------------------4----------------------------|
|--------------------------------------------------5-------|
|----------------------------------------------------------|


                                          ~~           ~~
   E  E       E.    S      +S    S  S  S  Q      a  E  E  E  E  S     +S   S  S  a  Q
|---------------------------------------------|----------------------------------------------|
|-15-12b12.5----------------------------------|-------------15-------------------------------|
|-14-12b12.5-------14b16==(14)r-12-14----12---|-12h14-12-------14b16r(14)-12----12h14b18=====|
|------------14-----------------------14------|----------14------------------14--------------|
|---------------------------------------------|----------------------------------------------|
|---------------------------------------------|----------------------------------------------|
|
|             PM----------------------------|             PM------------------------------|
|  Q          E  E          E       E     E E       Q     E  E  E          E        E     E
|---------------------------------------------|----------------------------------------------|
|---------------------------------------------|----------------------------------------------|
|---------------------------------------------|----------------------------------------------|
|--2------------------------------------------|-----5----------------------------------------|
|--2------------------------------------------|-----5----------------------------------------|
|--0----------0--0----------0-------0-----0-0-|-----3-----3--3--3----------3--------3-----3--|


  A5
  Gtrs I, II
    Q        e    e     e    e     e    e
    |        |    |     |    |     |    |
    /        o    /     /    /     /    /

  Gtr III
             |---3---|  |---3---|  |---3---|
   +E   +E   E  E    E  E  E    E  E  E    E
|--------------------------------------------|
|--------------------------------------------|
|-(14)r(14)p12------12s11--------------------|
|--------------14----------------------------|
|-------------------------14---13-12-10---12-|
|--------------------------------------------|


  C5                            B5
   Q                        e e  Q                 e        e
   |                        | |  |                 |        |
   /                        o /  /                 o        /

                            ~~
   |----3-----|                  |------6-------|  |------6-------|
   S     +S   S  +S   S  a  Q    S  S  S  S  S  S  S  S  S  S  S  S
|-------------------------------------------------------------------|
|-------------------------------------------------------------------|
|-------------------------------------------------------12h14p12----|
|-------------------------------------12h14p12----12h14----------14-|
|-12b13r(12)p10-(10)----10h12---12h14----------14-------------------|
|--------------------12---------------------------------------------|


  E5II
   E       E    E     E       E    E     E        E
   |       |    |     |       |    |     |        |
   /       /    /     /       /    /     /        /

                      ~~~~~~
   E      +E    S  S  E      +E    S  S  S  S     S  S
|---------------------------------12----------------12-|
|--------------12-15-----------------15-12-------12----|
|-14b16==(14)r-------14b16==(14)r----------14b16-------|
|------------------------------------------------------|
|------------------------------------------------------|
|------------------------------------------------------|


  G5V
   E       E    E     E       E    E     E         E
   |       |    |     |       |    |     |         |
   /       /    /     /       /    /     /         /

                      ~~~~~~
   E      +E    S  S  E      +E    S  S  S  S     +S   S
|--------------12-17--------------12---------------------|
|-15b17==(15)r-------15b17==(15)r----15-12---------------|
|------------------------------------------14b16r(14)-12-|
|--------------------------------------------------------|
|--------------------------------------------------------|
|--------------------------------------------------------|


  A5VII
   E       E    E            E         E      E   E      E
   |       |    |            |         |      |   |      |
   /       /    /            /         /      /   /      /

                                       ~~~~~~~
                |-------3-------|
   E      +E    E      E        E      Q         +E      S  S
|-15b17==(15)r-15pb16-15pb17---15pb16-15pb17====(15)r\-----15-|
|------------------------------------------------------/17----|
|-------------------------------------------------------------|
|-------------------------------------------------------------|
|-------------------------------------------------------------|
|-------------------------------------------------------------|


  C5X                        B5IX
   E        E     E     E     E     E     E     E
   |        |     |     |     |     |     |     |
   /        /     /     /     /     /     /     /

   T  T  S  S  S  S  S  S  S  S  S  S  S  S  S  S  S
|-20p19-15-17----15----------17----14----------------||
|-------------19----17-19-15----16----13-16----13p12-||
|-------------------------------------------14-------||
|----------------------------------------------------||
|----------------------------------------------------||
|----------------------------------------------------||


 Chorus
  Gtrs I, II
          PM|       PM          PM--|     PM
   Q      E E  E  E E E    +E   E E E E E E E
|-----------------------|---------------------|
|-----------------------|---------------------|
|--9--------------------|---------------------|
|--9----------12-11---9-|--(9)--------8-----9-|
|--7----------10--9---7-|--(7)--------6-9---7-|
|---------0-0-------0---|-------0-0-0---7-0---|
|
| Gtr III
|  ~~~~~~~~~~~~~~~~~~~~~~~~~~~~~
|  W                       +H.            Q
|-----------------------|---------------------|
|-15b17=================|=(15)r---------------|
|-----------------------|---------------------|
|-----------------------|---------------------|
|-----------------------|---------------------|
|-----------------------|---------------------|


       PM|       PM        PM|                 PM|       PM
  +Q   E E  E  E E E   +E  E E  E  +H       Q  E E  E  E E E
|--------------------|--------------------|------------------|
|--------------------|--------------------|------------------|
|--------------------|--------------------|-9----------------|
|-(9)------12-11---9-|-(9)-----10-(10)----|-9------12-11---9-|
|-(7)------10--9---7-|-(7)-----10-(10)----|-7------10--9---7-|
|------0-0-------0---|-----0-0--8--(8)----|----0-0-------0---|
|
|  W                    W                   W
|--------------------|--------------------|------------------|
|--------------------|--------------------|------------------|
|--------------------|--------------------|------------------|
|--------------------|--------------------|------------------|
|--------------------|--------------------|------------------|
|--------------------|--------------------|------------------|


      PM--|     PM        PM--|       PM
  +E  E E E E E E E   +E  E E E  E  E E E
|-------------------|---------------------|
|-------------------|---------------------|
|-------------------|---------------------|
|-(9)-------8-----9-|-(9)-------12-11---9-|
|-(7)-------6-9---7-|-(7)-------10--9---7-|
|-----0-0-0---7-0---|-----0-0-0-------0---|


      PM|                 PM|       PM        PM--|     PM
  +E  E E  E  +H       Q  E E  E  E E E   +E  E E E E E E E
|--------------------|------------------|-------------------|
|--------------------|------------------|-------------------|
|--------------------|-9----------------|-------------------|
|-(9)-----10-(10)----|-9------12-11---9-|-(9)-------8-----9-|
|-(7)-----10-(10)----|-7------10--9---7-|-(7)-------6-9---7-|
|-----0-0--8--(8)----|----0-0-------0---|-----0-0-0---7-0---|


       PM|       PM        PM|                 PM|       PM
  +Q   E E  E  E E E   +E  E E  E  +H       Q  E E  E  E E E
|--------------------|--------------------|------------------|
|--------------------|--------------------|------------------|
|--------------------|--------------------|-9----------------|
|-(9)------12-11---9-|-(9)-----10-(10)----|-9------12-11---9-|
|-(7)------10--9---7-|-(7)-----10-(10)----|-7------10--9---7-|
|------0-0-------0---|-----0-0--8--(8)----|----0-0-------0---|


      PM--|     PM        PM--|       PM        PM|
  +E  E E E E E E E   +E  E E E  E  E E E   +E  E E  E  +H
|-------------------|---------------------|--------------------||
|-------------------|---------------------|--------------------||
|-------------------|---------------------|--------------------||
|-(9)-------8-----9-|-(9)-------12-11---9-|-(9)-----10-(10)----||
|-(7)-------6-9---7-|-(7)-------10--9---7-|-(7)-----10-(10)----||
|-----0-0-0---7-0---|-----0-0-0-------0---|-----0-0--8--(8)----||


 Outro
  Gtrs I, II
     PM|       PM        PM--|     PM
  Q  E E  E  E E E   +E  E E E E E E E
|------------------|-------------------|
|------------------|-------------------|
|-9----------------|-------------------|
|-9------12-11---9-|-(9)-------8-----9-|
|-7------10--9---7-|-(7)-------6-9---7-|
|----0-0-------0---|-----0-0-0---7-0---|
|
| Gtr III
| ~~~~~~~~~~~~~~~~~~~~~~~~~~~~~~~~~~~~~~
| W                  +W
|------------------|-------------------|
|------------------|-------------------|
|-9----------------|-(9)---------------|
|------------------|-------------------|
|------------------|-------------------|
|------------------|-------------------|


       PM|       PM        PM|
  +Q   E E  E  E E E   +E  E E  E  +H
|--------------------|--------------------|
|--------------------|--------------------|
|--------------------|--------------------|
|-(9)------12-11---9-|-(9)-----10-(10)----|
|-(7)------10--9---7-|-(7)-----10-(10)----|
|------0-0-------0---|-----0-0--8--(8)----|
|
|~~~~~~~~~~~~~~~~~~~~~~~~~~~~~~~~~~~~~~
| +W                   +Q.      E  +H
|--------------------|--------------------|
|--------------------|--------------------|
|-(9)----------------|-(9)----------------|
|--------------------|---------10-(10)----|
|--------------------|--------------------|
|--------------------|--------------------|


     PM|       PM        PM--|     PM
  Q  E E  E  E E E   +E  E E E E E E E
|------------------|-------------------|
|------------------|-------------------|
|-9----------------|-------------------|
|-9------12-11---9-|-(9)-------8-----9-|
|-7------10--9---7-|-(7)-------6-9---7-|
|----0-0-------0---|-----0-0-0---7-0---|
|
| ~~~~~~~~~~~~~~~~~~~~~~~
| W                   W
|------------------|-------------------|
|------------------|-------------------|
|------------------|--9----------------|
|-9----------------|-------------------|
|------------------|-------------------|
|------------------|-------------------|


                PM-|       PM          PM|
  +Q            E  E  E  E E E    +E   E E  E  +H
|------------------------------|---------------------------*|
|------------------------------|---------------------------*|
|------------------------------|---------------------------*|
|-(9)----------------12-11---9-|--(9)------10-(10)---------*|
|-(7)----------------10--9---7-|--(7)------10-(10)---------*|
|---------------0--0-------0---|-------0-0--8--(8)---------*|
|
|               ~~~~~~~~~~~~~~~~~~~~~~~
|  E      +E    H.                +H..                +E
|------------------------------|---------------------------*|
|--------------15--------------|-(15)----------------(15)--*|
|-14b16==(14)-(14)-------------|-(14)----------------(14)r-*|
|------------------------------|---------------------------*|
|------------------------------|---------------------------*|
|------------------------------|---------------------------*|



Duration Legend
---------------
W - whole; H - half; Q - quarter; E - 8th; S - 16th; T - 32nd; X - 64th; a - acciaccatura
+ - note tied to previous; . - note dotted; .. - note double dotted
Uncapitalized letters represent notes that are staccato (1/2 duration)
Irregular groupings are notated above the duration line
Duration letters will always appear directly above the note/fret number it represents the
duration for.  Duration letters with no fret number below them represent rests.  Multi-
bar rests are notated in the form Wxn, where n is the number of bars to rest for.  Low
melody durations appear below the staff

Tablature Legend
----------------
 h   - hammer-on
 p   - pull-off
 b   - bend
 pb  - pre-bend
 r   - bend release (if no number after the r, then release immediately)
 /\  - slide into or out of (from/to "nowhere")
 s   - legato slide
 S   - shift slide
 - natural harmonic
[n]  - artificial harmonic
n(n) - tapped harmonic
 ~   - vibrato
 tr  - trill
 T   - tap
 TP  - trem. picking
 PM  - palm muting
\n/  - tremolo bar dip; n = amount to dip
 \n  - tremolo bar down
 n/  - tremolo bar up
/n\  - tremolo bar inverted dip
 =   - hold bend; also acts as connecting device for hammers/pulls
 <> - volume swell (louder/softer)
 x   - on rhythm slash represents muted slash
 o   - on rhythm slash represents single note slash

Misc Legend
-----------
 |  - bar
||  - double bar
||o - repeat start
o|| - repeat end
*|  - double bar (ending)
 :  - bar (freetime)
 $  - Segno
 &  - Coda
Tempo markers -  = BPM(8/16=s8/s16), where s8 = swing 8ths, s16 = swing 16ths


            
            
Suggest correction
Creating personal tab
Creating personal tab
You can edit any tab online and save it as your Personal.

You can edit, replace or remove any tab part or add personal notes – all changes will be seen only by you.

Personal tabs can be accessed anytime from any device, even offline.
Learn more »
Give kudos to tab author, rate the tab!
1 2 3 4 5
comments
print report bad tab
guest
You may want to rate the tab now too:
select rating
Wanna post a correction for this tab? Suggest correction