Oops, an error
Loading. Please wait.

Foreclosure Of A Dream tab

version 2
version 2

Whole song

Interactive

18,993 views 6 this week
no commentswrite comment
1 2 3 4 5
x 4
add to favorites
×
Save as Personal and add changes to this tab that will be seen only by you. Learn more ›
×
You can save this tab as Personal to edit and correct it or add notes. All changes will be seen only by you. Learn more »
launch autoscroll
font size
0
reset
how to read this tab
guitar tuner
backing track
0:00
0:00
edit
Autoscroll
slow
fast
+/-
esc
set tempo
stop
#----------------------------------PLEASE NOTE---------------------------------#
#This file is the author's own work and represents their interpretation of the #
#song. You may only use this file for private study, scholarship, or research. #
#------------------------------------------------------------------------------#

FORECLOSURE OF A DREAM
As recorded by Megadeth
(From the 1992 Album COUNTDOWN TO EXTINCTION)

Transcribed by cbliss66@aol.com
        

Words and Music by Mustaine and Ellefson
Arranged by Megadeth

Gtr I (E A D G B E) - 'Mustaine (clean gtr.)'
Gtr II (E A D G B E) - 'Mustaine (dirty gtr.)'
Gtr III (E A D G B E) - 'Friedman (dirty gtr)'
Gtr IV (E A D G B E) - 'Solo Gtr. (Friedman)'

 Intro
  Moderately Slow Rock Q=69
 4/4
  Gtr I
   S S S S S S S S S S S S S S S S    S S S S S S  S S S S S S  S S  S S
|----------------------------------|-------------------------------------|
|----------------------------------|-------------------------------------|
|------0-----0-----0-----0---0---0-|------0-----0------0-----0----0----0-|
|----0-----0-----0-----0-----------|----0-----0------0-----0-------------|
|-10-----7-----8-----4-----5---1---|-10-----7-----13-----8-----10---13---|
|----------------------------------|-------------------------------------|


   S S S S S S S S S S S S S S S S
|------------------------------------|
|------------------------------------|
|------0-----0-----0-----0---0---0---|
|----0-----0-----0-----0-------------|
|-10-----7-----8-----4-----5---1-----|
|------------------------------------|


  G       F         C       B         Bb   F
  Gtr III
   E.      E    +S   E.      E    +S   E    E
|-----------------------------------------------||
|-------------------13------12---(12)-11--------||
|-12------10---(10)------------------------10---||
|-------------------10-------9----(9)--8--------||
|-10-------8----(8)-------------------------8---||
|-----------------------------------------------||
|
| Gtr I
|  S  S S  S S   S   S  S S  S S   S   S S  S S
|-----------------------------------------------||
|-----------------------------------------------||
|-------0--------0--------0--------0-----0----0-||
|-----0------0----------0------0----------------||
|--------------------3-------2---------1--------||
|--3-------1--------------------------------1---||


 1st Verse
  G
                                         >
   W                                    +W
|------------------------------------|----------------------------------------|
|------------------------------------|----------------------------------------|
|-12---------------------------------|-(12)-----------------------------------|
|------------------------------------|----------------------------------------|
|-10---------------------------------|-(10)-----------------------------------|
|------------------------------------|----------------------------------------|
|
|  S S S S S S S S S S S S S S T T S     S  S S S S S S S S S S S S S T T S
|------------------------------------|----------------------------------------|
|------------------------------------|----------------------------------------|
|------0-----0-----0-----0---0-----0-|--------0-----0-----0-----0---0-----0---|
|----0-----0-----0-----0-------------|------0-----0-----0-----0---------------|
|--------------3-----2-----1---1h3---|----------------3-----2-----1---1h3-----|
|--3-----1---------------------------|---3------1-----------------------------|


                                      G       F         C       B         Bb   F
  W                                    E.      E    +S   E.      E    +S   E    E
|-----------------------------------|-------------------------------------------------|
|-----------------------------------|-------------------13------12---(12)-11----------|
|-----------------------------------|-12------10---(10)------------------------10-----|
|-----------------------------------|-------------------10-------9----(9)--8----------|
|-----------------------------------|-10-------8----(8)-------------------------8-----|
|-----------------------------------|-------------------------------------------------|
|
| S S S S S S S S S S S S S S T T S    S  S S  S S   S   S  S S  S S   S   S S  T T S
|-----------------------------------|-------------------------------------------------|
|-----------------------------------|-------------------------------------------------|
|-----0-----0-----0-----0---0-----0-|-------0--------0--------0--------0-----0------0-|
|---0-----0-----0-----0-------------|-----0------0----------0------0------------------|
|-------------3-----2-----1---1h3---|--------------------3-------2---------1----1h3---|
|-3-----1---------------------------|--3-------1--------------------------------------|


  A
   H.                        S  S  S  S
|-----------------------------------------|
|-----------------------------------------|
|-14--------------------------------------|
|------------------------------------12---|
|-12------------------------12-14-15------|
|-----------------------------------------|
|
|  S  S S S S S S S S S S S  S  S  S  S
|-----------------------------------------|
|-------0-----0-----0-----0-----0-----0---|
|-----5-----5-----5-----5-----------------|
|--7------6-----5-----4------3-----2------|
|-----------------------------------------|
|-----------------------------------------|


   H.                        E    +E
|----------------------------------------|
|----------------------------------------|
|----------------------------------------|
|-14------------------------12---(12)\---|
|----------------------------------------|
|----------------------------------------|
|
|  S  S S S S S S S S S S S  S S   S   S
|----------------------------------------|
|----------------------------------------|
|-------0-----0-----0-----0----0-------0-|
|-----5-----5-----5-----5----------------|
|--7------6-----5-----4------3-----2-----|
|----------------------------------------|


                                     Chorus
                                   Double-time Q=138
                                      G5   F5
                                               PM--------|
   W                                  Q.   e E S S S S S S
|----------------------------------||-----------------------|
|----------------------------------||-----------------------|
|----------------------------------||-----------------------|
|----------------------------------||-5----3----------------|
|--5-------------------------------||-5----3----------------|
|----------------------------------||-3----1---1-1-1-1-1-1--|
|
|                                  Gtr II
|                                              PM--------|
|  S S S S S S S S S S S S S S S S    Q.   e E S S S S S S
|----------------------------------||-----------------------|
|----------------------------------||-----------------------|
|------0-----0-----0-----0---0---0-||-----------------------|
|----0-----0-----0-----0-----------||-5----3----------------|
|-/5-----3-----1-----0-------------||-5----3----------------|
|--------------------------3---1---||-3----1---1-1-1-1-1-1--|


  C5   Bb5               G5   F5                C5   Bb5 C5  C#5
           PM--------|            PM--------|
  Q.   E E S S S S S S   Q.   E E S S S S S S   Q.   E E E S E.
|----------------------|----------------------|------------------|
|----------------------|----------------------|------------------|
|-5----3---------------|----------------------|-5----3---5---6---|
|-5----3---------------|-5----3---------------|-5----3---5---6---|
|-3----1---1-1-1-1-1-1-|-5----3---------------|-3----1---3---4---|
|----------------------|-3----1---1-1-1-1-1-1-|------------------|
|
|          PM--------|            PM--------|
| Q.   E E S S S S S S   Q.   E E S S S S S S   Q.   E E E S E.
|----------------------|----------------------|------------------|
|----------------------|----------------------|------------------|
|-5----3---------------|----------------------|-5----3---5---6---|
|-5----3---------------|-5----3---------------|-5----3---5---6---|
|-3----1---1-1-1-1-1-1-|-5----3---------------|-3----1---3---4---|
|----------------------|-3----1---1-1-1-1-1-1-|------------------|


  G5   F5                C5   Bb5
           PM--------|            PM--------|
  Q.   e E S S S S S S   Q.   E E S S S S S S
|----------------------|----------------------|
|----------------------|----------------------|
|----------------------|-5----3---------------|
|-5----3---------------|-5----3---------------|
|-5----3---------------|-3----1---1-1-1-1-1-1-|
|-3----1---1-1-1-1-1-1-|----------------------|
|
|          PM--------|            PM--------|
| Q.   e E S S S S S S   Q.   E E S S S S S S
|----------------------|----------------------|
|----------------------|----------------------|
|----------------------|-5----3---------------|
|-5----3---------------|-5----3---------------|
|-5----3---------------|-3----1---1-1-1-1-1-1-|
|-3----1---1-1-1-1-1-1-|----------------------|


  G5   F5                C5   Bb5 C5  C#5
           PM--------|
  Q.   E E S S S S S S   Q.   E E E S E.
|----------------------|-------------------||
|----------------------|-------------------||
|----------------------|-5----3---5---6----||
|-5----3---------------|-5----3---5---6----||
|-5----3---------------|-3----1---3---4----||
|-3----1---1-1-1-1-1-1-|-------------------||
|
|          PM--------|
| Q.   E E S S S S S S   Q.   E E E S E.
|----------------------|-------------------||
|----------------------|-------------------||
|----------------------|-5----3---5---6----||
|-5----3---------------|-5----3---5---6----||
|-5----3---------------|-3----1---3---4----||
|-3----1---1-1-1-1-1-1-|-------------------||


  Half-time Q=69
  G5
   W
|----------------------------------|
|----------------------------------|
|----------------------------------|
|--5-------------------------------|
|--5-------------------------------|
|--3-------------------------------|
|
| Gtr I
|  S S S S S S S S S S S S S S S S
|----------------------------------|
|----------------------------------|
|------0-----0-----0-----0---0---0-|
|----0-----0-----0-----0-----------|
|-10-----7-----8-----4-----5---1---|
|----------------------------------|


   >
  +W                                      W
|--------------------------------------|----------------------------------|
|--------------------------------------|----------------------------------|
|--------------------------------------|----------------------------------|
|-(5)----------------------------------|----------------------------------|
|-(5)----------------------------------|----------------------------------|
|-(3)----------------------------------|----------------------------------|
|
|  S  S S S S S  S S S S S S  S S  S S    S S S S S S S S S S S S S S S S
|--------------------------------------|----------------------------------|
|--------------------------------------|----------------------------------|
|-------0-----0------0-----0----0----0-|------0-----0-----0-----0---0---0-|
|-----0-----0------0-----0-------------|----0-----0-----0-----0-----------|
|-10------7-----13-----8-----10---13---|-10-----7-----8-----4-----5---1---|
|--------------------------------------|----------------------------------|


  G       F         C       B         Bb   F
   E.      E    +S   E.      E    +S   E    E
|-----------------------------------------------||
|-------------------13------12---(12)-11--------||
|-12------10---(10)------------------------10---||
|-------------------10-------9----(9)--8--------||
|-10-------8----(8)-------------------------8---||
|-----------------------------------------------||
|
|  S  S S  S S   S   S  S S  S S   S   S S  S S
|-----------------------------------------------||
|-----------------------------------------------||
|-------0--------0--------0--------0-----0----0-||
|-----0------0----------0------0----------------||
|--------------------3-------2---------1--------||
|--3-------1--------------------------------1---||


 2nd Verse
  G
                                         >
   W                                    +W
|------------------------------------|----------------------------------------|
|------------------------------------|----------------------------------------|
|-12---------------------------------|-(12)-----------------------------------|
|------------------------------------|----------------------------------------|
|-10---------------------------------|-(10)-----------------------------------|
|------------------------------------|----------------------------------------|
|
|  S S S S S S S S S S S S S S T T S     S  S S S S S S S S S S S S S T T S
|------------------------------------|----------------------------------------|
|------------------------------------|----------------------------------------|
|------0-----0-----0-----0---0-----0-|--------0-----0-----0-----0---0-----0---|
|----0-----0-----0-----0-------------|------0-----0-----0-----0---------------|
|--------------3-----2-----1---1h3---|----------------3-----2-----1---1h3-----|
|--3-----1---------------------------|---3------1-----------------------------|


                                      G       F         C       B         Bb   F
  W                                    E.      E    +S   E.      E    +S   E    E
|-----------------------------------|-------------------------------------------------|
|-----------------------------------|-------------------13------12---(12)-11----------|
|-----------------------------------|-12------10---(10)------------------------10-----|
|-----------------------------------|-------------------10-------9----(9)--8----------|
|-----------------------------------|-10-------8----(8)-------------------------8-----|
|-----------------------------------|-------------------------------------------------|
|
| S S S S S S S S S S S S S S T T S    S  S S  S S   S   S  S S  S S   S   S S  T T S
|-----------------------------------|-------------------------------------------------|
|-----------------------------------|-------------------------------------------------|
|-----0-----0-----0-----0---0-----0-|-------0--------0--------0--------0-----0------0-|
|---0-----0-----0-----0-------------|-----0------0----------0------0------------------|
|-------------3-----2-----1---1h3---|--------------------3-------2---------1----1h3---|
|-3-----1---------------------------|--3-------1--------------------------------------|


  A
   H.                        S  S  S  S
|-----------------------------------------|
|-----------------------------------------|
|-14--------------------------------------|
|------------------------------------12---|
|-12------------------------12-14-15------|
|-----------------------------------------|
|
|  S  S S S S S S S S S S S  S  S  S  S
|-----------------------------------------|
|-------0-----0-----0-----0-----0-----0---|
|-----5-----5-----5-----5-----------------|
|--7------6-----5-----4------3-----2------|
|-----------------------------------------|
|-----------------------------------------|


   H.                        E    +E
|----------------------------------------|
|----------------------------------------|
|----------------------------------------|
|-14------------------------12---(12)\---|
|----------------------------------------|
|----------------------------------------|
|
|  S  S S S S S S S S S S S  S S   S   S
|----------------------------------------|
|----------------------------------------|
|-------0-----0-----0-----0----0-------0-|
|-----5-----5-----5-----5----------------|
|--7------6-----5-----4------3-----2-----|
|----------------------------------------|


                                     Chorus II
                                   Double-time Q=138
                                      G5   F5
                                               PM--------|
   W                                  Q.   e E S S S S S S
|----------------------------------||-----------------------|
|----------------------------------||-----------------------|
|----------------------------------||-----------------------|
|----------------------------------||-5----3----------------|
|--5-------------------------------||-5----3----------------|
|----------------------------------||-3----1---1-1-1-1-1-1--|
|
|                                  Gtr II
|                                              PM--------|
|  S S S S S S S S S S S S S S S S    Q.   e E S S S S S S
|----------------------------------||-----------------------|
|----------------------------------||-----------------------|
|------0-----0-----0-----0---0---0-||-----------------------|
|----0-----0-----0-----0-----------||-5----3----------------|
|-/5-----3-----1-----0-------------||-5----3----------------|
|--------------------------3---1---||-3----1---1-1-1-1-1-1--|


  C5   Bb5               G5   F5                C5   Bb5 C5  C#5
           PM--------|            PM--------|
  Q.   E E S S S S S S   Q.   E E S S S S S S   Q.   E E E S E.
|----------------------|----------------------|------------------|
|----------------------|----------------------|------------------|
|-5----3---------------|----------------------|-5----3---5---6---|
|-5----3---------------|-5----3---------------|-5----3---5---6---|
|-3----1---1-1-1-1-1-1-|-5----3---------------|-3----1---3---4---|
|----------------------|-3----1---1-1-1-1-1-1-|------------------|
|
|          PM--------|            PM--------|
| Q.   E E S S S S S S   Q.   E E S S S S S S   Q.   E E E S E.
|----------------------|----------------------|------------------|
|----------------------|----------------------|------------------|
|-5----3---------------|----------------------|-5----3---5---6---|
|-5----3---------------|-5----3---------------|-5----3---5---6---|
|-3----1---1-1-1-1-1-1-|-5----3---------------|-3----1---3---4---|
|----------------------|-3----1---1-1-1-1-1-1-|------------------|


  G5   F5                C5   Bb5               G5   F5
           PM--------|            PM--------|            PM--------|
  Q.   e E S S S S S S   Q.   E E S S S S S S   Q.   E E S S S S S S
|----------------------|----------------------|-----------------------|
|----------------------|----------------------|-----------------------|
|----------------------|-5----3---------------|-----------------------|
|-5----3---------------|-5----3---------------|-5----3----------------|
|-5----3---------------|-3----1---1-1-1-1-1-1-|-5----3----------------|
|-3----1---1-1-1-1-1-1-|----------------------|-3----1---1-1-1-1-1-1--|
|
|          PM--------|            PM--------|            PM--------|
| Q.   e E S S S S S S   Q.   E E S S S S S S   Q.   E E S S S S S S
|----------------------|----------------------|-----------------------|
|----------------------|----------------------|-----------------------|
|----------------------|-5----3---------------|-----------------------|
|-5----3---------------|-5----3---------------|-5----3----------------|
|-5----3---------------|-3----1---1-1-1-1-1-1-|-5----3----------------|
|-3----1---1-1-1-1-1-1-|----------------------|-3----1---1-1-1-1-1-1--|


                         Guitar Solo I (Mustaine)
  C5       Bb5 C#5        A5          G5
                  Gtr IV
                                       T
  Q.   E E E S E  S       +Q      +E   E  +E  Q       +E
|----------------------||-----------------------------------|
|----------------------||-----------------------------------|
|-5----3---5---6--7pb9r||=(7)b9===(7)-15-(15)p7r======(7)---|
|-5----3---5---6-------||-----------------------------------|
|-3----1---3---4-------||-----------------------------------|
|----------------------||-----------------------------------|
|
|                         Gtrs II, III
|                                             PM----------|
| Q.   E E E S E.          Q.          e   E  S S S S  S  S
|----------------------||-----------------------------------|
|----------------------||-----------------------------------|
|-5----3---5---6-------||-----------------------------------|
|-5----3---5---6-------||--7-----------5--------------------|
|-3----1---3---4-------||--7-----------5--------------------|
|----------------------||--5-----------3------3-3-3-3--3--3-|


  D5     C5D5     Eb5
             ~~~~~~~~~
  |-3--|
  q  q q   S E.   +Q
|------------------------|
|------------------------|
|-7--7-7---7p5----(5)----|
|------------------------|
|------------------------|
|------------------------|
|
| Q.     E E    E  S  E.
|------------------------|
|------------------------|
|-7------5------7-----8--|
|-7------5------7-----8--|
|-5------3------5-----6--|
|------------------------|


  A5    G5
  |-3-|             |-3-|
  S S S S S S S S S S S S S S S S S S
|-------------------------------------|
|-------------------------------------|
|-5h6p5---5---------------------------|
|-------7---7-6-5---5h6p5---5---------|
|-----------------7-------7---7-6p5---|
|-----------------------------------8-|
|
|                         PM--------|
| Q.            e   E     S S S S S S
|-------------------------------------|
|-------------------------------------|
|-------------------------------------|
|-7-------------5---------------------|
|-7-------------5---------------------|
|-5-------------3---------3-3-3-3-3-3-|


  D5    C5  Eb5 D5  Eb5    D5   B
  |-3-|
  S S S S S S S Q    E  Q        W
|-----------------------------|---------------------|
|-----------------------------|---------------------|
|-----------------------------|---------------------|
|-----------------------------|-/9------------------|
|-5h6p5---5-------------------|---------------------|
|-------8---8-5-3s==16s10\----|-/7------------------|
|
|                                PM|      PM|
| Q.            E E  E  S  E.    E E S E. E E S E.
|-----------------------------|---------------------|
|-----------------------------|---------------------|
|-7-------------5----8-----7--|------5p4------2h4---|
|-7-------------5----8-----7--|---------------------|
|-5-------------3----6-----5--|--2-2------2-2-------|
|-----------------------------|---------------------|


  B                                                  B5C5C#5
                        Gtr III
                        PM|      PM|        PM|
                                                     |-3-|
  +W                    E E S E. E E S E.   E E S E. Q Q Q
|---------------------|-------------------|----------------||
|---------------------|-------------------|----------------||
|---------------------|-----5p4------2h4--|----------4-5-6-||
|-(9)-----------------|-------------------|-----5p4--4-5-6-||
|---------------------|-2-2------2-2------|-2-2------2-3-4-||
|-(7)-----------------|-------------------|----------------||
|
|  PM-|      PM|        PM|      PM|        PM|
|                                                    |-3-|
|  E  E S E. E E S E.   E E S E. E E S E.   E E S E. Q Q Q
|---------------------|-------------------|----------------||
|---------------------|-------------------|----------------||
|---------------------|-----5p4------2h4--|----------4-5-6-||
|-------5p4------2h4--|-------------------|-----5p4--4-5-6-||
|--2--2------2-2------|-2-2------2-2------|-2-2------2-3-4-||
|---------------------|-------------------|----------------||


  Half-time Q=69
  G5
   W
|----------------------------------|
|----------------------------------|
|----------------------------------|
|--5-------------------------------|
|--5-------------------------------|
|--3-------------------------------|
|
| Gtr I
|  S S S S S S S S S S S S S S S S
|----------------------------------|
|----------------------------------|
|------0-----0-----0-----0---0---0-|
|----0-----0-----0-----0-----------|
|-10-----7-----8-----4-----5---1---|
|----------------------------------|


  +W                                     +W
|--------------------------------------|-----------------------------------|
|--------------------------------------|-----------------------------------|
|--------------------------------------|-----------------------------------|
|-(5)----------------------------------|-(5)-------------------------------|
|-(5)----------------------------------|-(5)-------------------------------|
|-(3)----------------------------------|-(3)-------------------------------|
|
|  S  S S S S S  S S S S S S  S S  S S    S  S S S S S S S S S S S S S S S
|--------------------------------------|-----------------------------------|
|--------------------------------------|-----------------------------------|
|-------0-----0------0-----0----0----0-|-------0-----0-----0-----0---0---0-|
|-----0-----0------0-----0-------------|-----0-----0-----0-----0-----------|
|-10------7-----13-----8-----10---13---|-10------7-----8-----4-----5---1---|
|--------------------------------------|-----------------------------------|


  G       F         C       B         Bb   F
   E.      E    +S   E.      E    +S   E    E
|-----------------------------------------------||
|-------------------13------12---(12)-11--------||
|-12------10---(10)------------------------10---||
|-------------------10-------9----(9)--8--------||
|-10-------8----(8)-------------------------8---||
|-----------------------------------------------||
|
|  S  S S  S S   S   S  S S  S S   S   S S  S S
|-----------------------------------------------||
|-----------------------------------------------||
|-------0--------0--------0--------0-----0----0-||
|-----0------0----------0------0----------------||
|--------------------3-------2---------1--------||
|--3-------1--------------------------------1---||


 3rd Verse
  G
                                         >
   W                                    +W
|------------------------------------|----------------------------------------|
|------------------------------------|----------------------------------------|
|-12---------------------------------|-(12)-----------------------------------|
|------------------------------------|----------------------------------------|
|-10---------------------------------|-(10)-----------------------------------|
|------------------------------------|----------------------------------------|
|
|  S S S S S S S S S S S S S S T T S     S  S S S S S S S S S S S S S T T S
|------------------------------------|----------------------------------------|
|------------------------------------|----------------------------------------|
|------0-----0-----0-----0---0-----0-|--------0-----0-----0-----0---0-----0---|
|----0-----0-----0-----0-------------|------0-----0-----0-----0---------------|
|--------------3-----2-----1---1h3---|----------------3-----2-----1---1h3-----|
|--3-----1---------------------------|---3------1-----------------------------|


                                      G       F         C       B         Bb   F
  W                                    E.      E    +S   E.      E    +S   E    E
|-----------------------------------|-------------------------------------------------|
|-----------------------------------|-------------------13------12---(12)-11----------|
|-----------------------------------|-12------10---(10)------------------------10-----|
|-----------------------------------|-------------------10-------9----(9)--8----------|
|-----------------------------------|-10-------8----(8)-------------------------8-----|
|-----------------------------------|-------------------------------------------------|
|
| S S S S S S S S S S S S S S T T S    S  S S  S S   S   S  S S  S S   S   S S  T T S
|-----------------------------------|-------------------------------------------------|
|-----------------------------------|-------------------------------------------------|
|-----0-----0-----0-----0---0-----0-|-------0--------0--------0--------0-----0------0-|
|---0-----0-----0-----0-------------|-----0------0----------0------0------------------|
|-------------3-----2-----1---1h3---|--------------------3-------2---------1----1h3---|
|-3-----1---------------------------|--3-------1--------------------------------------|


  A
   H.                        S  S  S  S
|-----------------------------------------|
|-----------------------------------------|
|-14--------------------------------------|
|------------------------------------12---|
|-12------------------------12-14-15------|
|-----------------------------------------|
|
|  S  S S S S S S S S S S S  S  S  S  S
|-----------------------------------------|
|-------0-----0-----0-----0-----0-----0---|
|-----5-----5-----5-----5-----------------|
|--7------6-----5-----4------3-----2------|
|-----------------------------------------|
|-----------------------------------------|


                                                                            Do
                                                                            Gt
   H.                        E    +E        W
|----------------------------------------|----------------------------------||
|----------------------------------------|----------------------------------||
|----------------------------------------|----------------------------------||
|-14------------------------12---(12)\---|----------------------------------||
|----------------------------------------|--5-------------------------------||
|----------------------------------------|----------------------------------||
|
|                                                                           Gt
|  S  S S S S S S S S S S S  S S   S   S    S S S S S S S S S S S S S S S S
|----------------------------------------|----------------------------------||
|----------------------------------------|----------------------------------||
|-------0-----0-----0-----0----0-------0-|------0-----0-----0-----0---0---0-||
|-----5-----5-----5-----5----------------|----0-----0-----0-----0-----------||
|--7------6-----5-----4------3-----2-----|-/5-----3-----1-----0-------------||
|----------------------------------------|--------------------------3---1---||


 Guitar Solo II (Friedman)
 uble-time Q=138
  G5            F5
 r IV
                 ~~~~~~~~~~~~
   E      +Q     E      +Q        E    E
|-15-----(15)---15-----(15)------15---19----|
|-18b20==(18)r--18b20==(18)r----------------|
|-------------------------------------------|
|-------------------------------------------|
|-------------------------------------------|
|-------------------------------------------|
|
|rs II, III
|                            PM----------|
|  Q.            e       E   S S  S S  S S
|-------------------------------------------|
|-------------------------------------------|
|-------------------------------------------|
|--5-------------3--------------------------|
|--5-------------3--------------------------|
|--3-------------1-----------1-1--1-1--1-1--|


  C5                      Bb5
                                                   |---3---|
   S      +S   S  S  S  S  S  S  S  S  S  S  S  S  S  S    S
|-19pb20r(19)-15---------------------------------------------|
|----------------18-15----18p15------------------------------|
|----------------------17-------17p16------------------------|
|-------------------------------------17-15-14-15-14h15p==14-|
|------------------------------------------------------------|
|------------------------------------------------------------|
|
|                                      PM---------------|
|  Q.                      E     E     S  S  S  S  S    S
|------------------------------------------------------------|
|------------------------------------------------------------|
|--5-----------------------3---------------------------------|
|--5-----------------------3---------------------------------|
|--3-----------------------1-----------1--1--1--1--1----1----|
|------------------------------------------------------------|


  G5                 F5
   S   S  S  S  S  S  S  S  S  S  S  S      +S   S  S  S
|---------------------------------------------------------|
|---------------------------------------------------------|
|-----------------------------------17pb19r(17)p15-17-15--|
|-----14----------15h17p15----15h17-----------------------|
|-17-----17-15h17----------17-----------------------------|
|---------------------------------------------------------|
|
|                                 PM------------------|
|  Q.                 E     E     S  S       S   S  S  S
|---------------------------------------------------------|
|---------------------------------------------------------|
|---------------------------------------------------------|
|--5------------------3-----------------------------------|
|--5------------------3-----------------------------------|
|--3------------------1-----------1--1-------1---1--1--1--|


  C5                                 Bb5         C5   C#5
                                                  ~~
   S      +S    S  S  S  T      +T    S  S  S  S  Q       +E
|--------------15----------------------------------------------|
|-18b20==(18)r----18p15--------------15-18----15---------------|
|-----------------------17b19==(17)r-------17----15------(15)\-|
|--------------------------------------------------------------|
|--------------------------------------------------------------|
|--------------------------------------------------------------|
|
|  Q.                                 E     E     E S E.
|--------------------------------------------------------------|
|--------------------------------------------------------------|
|--5----------------------------------3-----------5---6--------|
|--5----------------------------------3-----------5---6--------|
|--3----------------------------------1-----------3---4--------|
|--------------------------------------------------------------|


  G5               F5
    E   S  S  S  S  S  S  S  S  S  S        a   +S   S  S  S
|-------------------------------------------------------------|
|-------------------------------------------------------------|
|---------------------15-17h18p17-17pb18==(17)r(17)p15--------|
|---------------15-17----------------------------------17-15--|
|-/17--15-16-17-----------------------------------------------|
|-------------------------------------------------------------|
|
|                               PM------------------------|
|   Q.              e     E     S  S             S   S  S  S
|-------------------------------------------------------------|
|-------------------------------------------------------------|
|-------------------------------------------------------------|
|---5---------------3-----------------------------------------|
|---5---------------3-----------------------------------------|
|---3---------------1-----------1--1-------------1---1--1--1--|


  C5                             Bb5
   S      +S    E       +S   +S   S  S  S  S  S  S  S  S  E
|-------------------------------------------------------------|
|-17b20==(17)r------------------------------------------------|
|--------------17pb19==(17)r(17)-17p15-17-17p15----14---------|
|-----------------------------------------------17----15------|
|--------------------------------------------------------17s==|
|-------------------------------------------------------------|
|
|                                             PM------------|
|  Q.                             E     E     S  S  S  S  S S
|-------------------------------------------------------------|
|-------------------------------------------------------------|
|--5------------------------------3---------------------------|
|--5------------------------------3---------------------------|
|--3------------------------------1-----------1--1--1--1--1-1-|
|-------------------------------------------------------------|


  G5               F5
           |--3--|
   E    E  S  S  S  S  S  S      +S    S  S  S  T  T  S  S
|-----------------------------------------------------------|
|---------15h18p15----15--------------15-18-15-18p15----15--|
|-----/16----------17----17b19==(17)r----------------17-----|
|-----------------------------------------------------------|
|-12\-------------------------------------------------------|
|-----------------------------------------------------------|
|
|                                      PM---------------|
|  Q.               E     E            S  S  S  S     S  S
|-----------------------------------------------------------|
|-----------------------------------------------------------|
|-----------------------------------------------------------|
|--5----------------3---------------------------------------|
|--5----------------3---------------------------------------|
|--3----------------1------------------1--1--1--1-----1--1--|


  C5        Bb5     C5                  C#5
   |--3---|  |---3---|  |---3---|  |---3----|
   e   e  e  e  e    e  e  e    e  e     e  e
|-18--17-15-----------------------------------||
|-----------18-17---15------------------------||
|----------------------17-16---15-------------||
|---------------------------------17----16-15-||
|---------------------------------------------||
|---------------------------------------------||
|
|  Q.             E     E    E     S E.
|---------------------------------------------||
|---------------------------------------------||
|--5--------------3----------5-------6--------||
|--5--------------3----------5-------6--------||
|--3--------------1----------3-------4--------||
|---------------------------------------------||


  A5     G5                       D5        C5        D5     Eb5
          ~~~~~~~~                                 ~~~~~~~~~~
  Q.     +E  +E    E.     S S S   Q     +E  E     +Q    +Q
|-------------------------------|-------------------------------|
|-------------------------------|-8b10r=(8)-8b10==(8)---(8)r----|
|---------------------------7h9-|-------------------------------|
|-5b7====(5)-(5)r-/7------9-----|-------------------------------|
|-------------------------------|-------------------------------|
|-------------------------------|-------------------------------|
|
|                  PM---------|
| Q.      e   E    S  S S S S S   Q.        E      E  E  S   E.
|-------------------------------|-------------------------------|
|-------------------------------|-------------------------------|
|-------------------------------|-7---------5---------7------8--|
|-7-------5---------------------|-7---------5---------7------8--|
|-7-------5---------------------|-5---------3---------5------6--|
|-5-------3--------3--3-3-3-3-3-|-------------------------------|


  A5                G5
   S  S  S  S  S  S  S  S  S  S  S  S  S  S  S  S
|-12p11p10----------------------------------------|
|----------13p10----10h13-------------------------|
|----------------12-------------------------------|
|-------------------------13s12p10----------10----|
|----------------------------------12s10s12----12-|
|-------------------------------------------------|
|
|                                PM------------|
|  Q.                e     E     S  S  S  S  S  S
|-------------------------------------------------|
|-------------------------------------------------|
|-------------------------------------------------|
|--7-----------------5----------------------------|
|--7-----------------5----------------------------|
|--5-----------------3-----------3--3--3--3--3--3-|


  D5                        C5                Eb5            D5
   |--3--| |--3--|  |--3--|  |--3---| |--3--|  |--3--|  |---3----|  |--3--|
   S  S  S S  S  S  S  S  S  S  S   S S  S  S  S  S  S  S  S     S  S  S  S
|------------------------------------------------------------------14h15h17--|
|------------------10h12h13p12p10-------------10h12h13-14h15h===17-----------|
|----------9h11h12----------------h12-9h11h12--------------------------------|
|-10h12h13-------------------------------------------------------------------|
|----------------------------------------------------------------------------|
|----------------------------------------------------------------------------|
|
|  Q.                        E        E        E        S    E.
|----------------------------------------------------------------------------|
|----------------------------------------------------------------------------|
|--7-------------------------5-----------------8-------------7---------------|
|--7-------------------------5-----------------8-------------7---------------|
|--5-------------------------3-----------------6-------------5---------------|
|----------------------------------------------------------------------------|


                                                             G
           ~~~~~~~~~~~~~~~~~~~~~~~~~~~~~~~~~~~~~~~
   E      +H          +Q.         +H          +Q     +Q
|-17b19==(17)--------(17)------|-(17)--------(17)---(17)r----|
|------------------------------|-----------------------------|
|------------------------------|-----------------------------|
|------------------------------|-----------------------------|
|------------------------------|-----------------------------|
|------------------------------|-----------------------------|
|
|  PM----|         PM|             PM-|        PM-|
|  E       E  S E. E   E  S E.     E  E S E.   E  E   S   E.
|------------------------------|-----------------------------|
|------------------------------|-----------------------------|
|-------------5p4---------2h4--|-----------------------------|
|------------------------------|--------5p4-----------2h==4--|
|--2-------2-------2---2-------|---2--2--------2--2----------|
|------------------------------|-----------------------------|


                               B5C5C#5
 tr III
  PM|      PM|        PM|
                               |-3-|
  E E S E. E E S E.   E E S E. Q Q Q
|-------------------|----------------||
|-------------------|----------------||
|-----5p4------2h4--|----------4-5-6-||
|-------------------|-----5p4--4-5-6-||
|-2-2------2-2------|-2-2------2-3-4-||
|-------------------|----------------||
|
| PM|      PM|        PM|
|                              |-3-|
| E E S E. E E S E.   E E S E. Q Q Q
|-------------------|----------------||
|-------------------|----------------||
|-----5p4------2h4--|----------4-5-6-||
|-------------------|-----5p4--4-5-6-||
|-2-2------2-2------|-2-2------2-3-4-||
|-------------------|----------------||


 4th Verse
  Half-time Q=69
  G5
   W
|----------------------------------|
|----------------------------------|
|----------------------------------|
|--5-------------------------------|
|--5-------------------------------|
|--3-------------------------------|
|
| Gtr I
|  S S S S S S S S S S S S S S S S
|----------------------------------|
|----------------------------------|
|------0-----0-----0-----0---0---0-|
|----0-----0-----0-----0-----------|
|-10-----7-----8-----4-----5---1---|
|----------------------------------|


                                          >
  +W                                     +W
|--------------------------------------|-----------------------------------|
|--------------------------------------|-----------------------------------|
|--------------------------------------|-----------------------------------|
|-(5)----------------------------------|-(5)-------------------------------|
|-(5)----------------------------------|-(5)-------------------------------|
|-(3)----------------------------------|-(3)-------------------------------|
|
|  S  S S S S S  S S S S S S  S S  S S    S  S S S S S S S S S S S S S S S
|--------------------------------------|-----------------------------------|
|--------------------------------------|-----------------------------------|
|-------0-----0------0-----0----0----0-|-------0-----0-----0-----0---0---0-|
|-----0-----0------0-----0-------------|-----0-----0-----0-----0-----------|
|-10------7-----13-----8-----10---13---|-10------7-----8-----4-----5---1---|
|--------------------------------------|-----------------------------------|


                                  D
  W
|---------------------------------|
|---------------------------------|
|---------------------------------|
|---------------------------------|
|---------------------------------|
|---------------------------------|
|
| S S S S S S S S S S S S S S S S
|---------------------------------|
|---------------------------------|
|-----0-----0-----0-----0---0---0-|
|---0-----0-----0-----0-----------|
|-------------3-----2-----1-------|
|-3-----1---------------------1---|


   Chorus III
 ouble-time Q=138
    G5   F5                C5   Bb5
    Gtr III
             PM--------|            PM--------|
    Q.   e E S S S S S S   Q.   E E S S S S S S
||-----------------------|-----------------------|
||o----------------------|-----------------------|
||-----------------------|-5----3----------------|
||--5----3---------------|-5----3----------------|
||o-5----3---------------|-3----1---1-1-1-1-1-1--|
||--3----1---1-1-1-1-1-1-|-----------------------|
|
|   Gtr II
|            PM--------|            PM--------|
|   Q.   e E S S S S S S   Q.   E E S S S S S S
||-----------------------|-----------------------|
||o----------------------|-----------------------|
||-----------------------|-5----3----------------|
||--5----3---------------|-5----3----------------|
||o-5----3---------------|-3----1---1-1-1-1-1-1--|
||--3----1---1-1-1-1-1-1-|-----------------------|


  G5   F5                C5   Bb5 C5  C#5
           PM--------|
  Q.   e E S S S S S S   Q.   E E E S E.
|----------------------|------------------||-||
|----------------------|-----------------o||-||
|----------------------|-5----3---5---6---||-||
|-5----3---------------|-5----3---5---6---||-||
|-5----3---------------|-3----1---3---4--o||-||
|-3----1---1-1-1-1-1-1-|------------------||-||
|
|          PM--------|
| Q.   e E S S S S S S   Q.   E E E S E.
|----------------------|------------------||-||
|----------------------|-----------------o||-||
|----------------------|-5----3---5---6---||-||
|-5----3---------------|-5----3---5---6---||-||
|-5----3---------------|-3----1---3---4--o||-||
|-3----1---1-1-1-1-1-1-|------------------||-||


  A5   G5                D5   C5
           PM--------|            PM--------|
  Q.   e E S S S S S S   Q.   E E S S S S S S
|----------------------|-----------------------|
|----------------------|-----------------------|
|----------------------|-7----5----------------|
|-7----5---------------|-7----5----------------|
|-7----5---------------|-5----3---3-3-3-3-3-3--|
|-5----3---3-3-3-3-3-3-|-----------------------|
|
|          PM--------|            PM--------|
| Q.   e E S S S S S S   Q.   E E S S S S S S
|----------------------|-----------------------|
|----------------------|-----------------------|
|----------------------|-7----5----------------|
|-7----5---------------|-7----5----------------|
|-7----5---------------|-5----3---3-3-3-3-3-3--|
|-5----3---3-3-3-3-3-3-|-----------------------|


  A5   G5                D5   C5  D5  Eb5
           PM--------|
  Q.   e E S S S S S S   Q.   E E E S E.
|----------------------|-----------------|
|----------------------|-----------------|
|----------------------|-7----5---7---8--|
|-7----5---------------|-7----5---7---8--|
|-7----5---------------|-5----3---5---6--|
|-5----3---3-3-3-3-3-3-|-----------------|
|
|          PM--------|
| Q.   e E S S S S S S   Q.   E E E S E.
|----------------------|-----------------|
|----------------------|-----------------|
|----------------------|-7----5---7---8--|
|-7----5---------------|-7----5---7---8--|
|-7----5---------------|-5----3---5---6--|
|-5----3---3-3-3-3-3-3-|-----------------|


  G5   F5                C5   Bb5
           PM--------|            PM--------|
  Q.   e E S S S S S S   Q.   E E S S S S S S
|----------------------|------------------------|
|----------------------|------------------------|
|----------------------|-5----3-----------------|
|-5----3---------------|-5----3-----------------|
|-5----3---------------|-3----1---1-1-1-1-1-1---|
|-3----1---1-1-1-1-1-1-|------------------------|
|
|          PM--------|            PM--------|
| Q.   e E S S S S S S   Q.   E E S S S S S S
|----------------------|------------------------|
|----------------------|------------------------|
|----------------------|-5----3-----------------|
|-5----3---------------|-5----3-----------------|
|-5----3---------------|-3----1---1-1-1-1-1-1---|
|-3----1---1-1-1-1-1-1-|------------------------|


  G5   F5                C5   Bb5 C5  C#5
           PM--------|
  Q.   e E S S S S S S   Q.   E E E S E.
|----------------------|-----------------||
|----------------------|-----------------||
|----------------------|-5----3---5---6--||
|-5----3---------------|-5----3---5---6--||
|-5----3---------------|-3----1---3---4--||
|-3----1---1-1-1-1-1-1-|-----------------||
|
|          PM--------|
| Q.   e E S S S S S S   Q.   E E E S E.
|----------------------|-----------------||
|----------------------|-----------------||
|----------------------|-5----3---5---6--||
|-5----3---------------|-5----3---5---6--||
|-5----3---------------|-3----1---3---4--||
|-3----1---1-1-1-1-1-1-|-----------------||


 Outro
  Half-time Q=69
  G5                            Bb5 C5
  Gtr III
  H..                           S   S
|-------------------------------------|
|-------------------------------------|
|-------------------------------3s==5-|
|-5-----------------------------3s==5-|
|-5-----------------------------1s==3-|
|-3-----------------------------------|
|
| Gtr I
| S   S S S S S S S S S S S S S T T S
|-------------------------------------|
|-------------------------------------|
|-------0-----0-----0-----0---0-----0-|
|-----0-----0-----0-----0-------------|
|---------------3-----2-----1---1h3---|
|-3-------1---------------------------|


  G5                            F5
  H..                           e
|-------------------------------------|
|-------------------------------------|
|-------------------------------------|
|-5-----------------------------3-----|
|-5-----------------------------3-----|
|-3-----------------------------1-----|
|
| S   S S S S S S S S S S S S S T T S
|-------------------------------------|
|-------------------------------------|
|-------0-----0-----0-----0---0-----0-|
|-----0-----0-----0-----0-------------|
|---------------3-----2-----1---1h3---|
|-3-------1---------------------------|


  G5                             F5    G5                             F5
   H..                           e      H..                           e
|------------------------------------|-----------------------------------|
|------------------------------------|-----------------------------------|
|------------------------------------|-----------------------------------|
|--5-----------------------------3---|--5-----------------------------3--|
|--5-----------------------------3---|--5-----------------------------3--|
|--3-----------------------------1---|--3-----------------------------1--|
|
|  S   S S S S S S S S S S S S S S S    S   S S S S S  S S S S S S  Q
|------------------------------------|-----------------------------------|
|------------------------------------|-----------------------------------|
|--------0-----0-----0-----0---0---0-|--------0-----0------0-----0-------|
|------0-----0-----0-----0-----------|------0-----0------0-----0---------|
|-10-------7-----8-----4-----5---1---|-10-------7-----13-----8-----10----|
|------------------------------------|-----------------------------------|


  G5
    W            +W            +W
|-------------|-------------|---------*|
|-------------|-------------|---------*|
|-------------|-------------|---------*|
|---5---------|--(5)--------|--(5)----*|
|---5---------|--(5)--------|--(5)----*|
|---3---------|--(3)--------|--(3)----*|
|
|  +W            +W            +W
|-------------|-------------|---------*|
|-------------|-------------|---------*|
|-------------|-------------|---------*|
|-------------|-------------|---------*|
|-(10)--------|-(10)--------|-(10)----*|
|-------------|-------------|---------*|



Duration Legend
---------------
W - whole; H - half; Q - quarter; E - 8th; S - 16th; T - 32nd; X - 64th; a - acciaccatura
+ - note tied to previous; . - note dotted; .. - note double dotted
Uncapitalized letters represent notes that are staccato (1/2 duration)
Irregular groupings are notated above the duration line
Duration letters will always appear directly above the note/fret number it represents the
duration for.  Duration letters with no fret number below them represent rests.  Multi-
bar rests are notated in the form Wxn, where n is the number of bars to rest for.  Low
melody durations appear below the staff

Tablature Legend
----------------
 h   - hammer-on
 p   - pull-off
 b   - bend
 pb  - pre-bend
 r   - bend release (if no number after the r, then release immediately)
 /\  - slide into or out of (from/to "nowhere")
 s   - legato slide
 S   - shift slide
 - natural harmonic
[n]  - artificial harmonic
n(n) - tapped harmonic
 ~   - vibrato
 tr  - trill
 T   - tap
 TP  - trem. picking
 PM  - palm muting
\n/  - tremolo bar dip; n = amount to dip
 \n  - tremolo bar down
 n/  - tremolo bar up
/n\  - tremolo bar inverted dip
 =   - hold bend; also acts as connecting device for hammers/pulls
 <> - volume swell (louder/softer)
 x   - on rhythm slash represents muted slash
 o   - on rhythm slash represents single note slash

Misc Legend
-----------
 |  - bar
||  - double bar
||o - repeat start
o|| - repeat end
*|  - double bar (ending)
 :  - bar (freetime)
 $  - Segno
 &  - Coda
Tempo markers -  = BPM(8/16=s8/s16), where s8 = swing 8ths, s16 = swing 16ths


            
            
Suggest correction
Creating personal tab
Creating personal tab
You can edit any tab online and save it as your Personal.

You can edit, replace or remove any tab part or add personal notes – all changes will be seen only by you.

Personal tabs can be accessed anytime from any device, even offline.
Learn more »
comments
print report bad tab
guest
You may want to rate the tab now too:
select rating
Wanna post a correction for this tab? Suggest correction