Oops, an error
Loading. Please wait.

Good Mourning Black Friday bass

version 1
version 1

Whole song

1,527 views 1 this week
no commentswrite comment
1 2 3 4 5
3 more votes to show rating
add to favorites
×
Save as Personal and add changes to this tab that will be seen only by you. Learn more ›
×
You can save this tab as Personal to edit and correct it or add notes. All changes will be seen only by you. Learn more »
launch autoscroll
font size
0
reset
guitar tuner
backing track
0:00
0:00
edit
Autoscroll
slow
fast
+/-
esc
set tempo
stop
Author
Difficulty
Fig 1x3
G-----------4-4h6----------------|
D---Rest-------------------------|
A------------------4---2--1------|
E----------------------------4---|

Fig 2x1
G-----------4-4h6------------------------|
D---Rest---------------------------------|
A------------------4---2--1--2--1--2--1--|
E----------------------------------------|

Fig 2 continue
  ("Good Mourning..")
G----------------------------|
D---------------------Rest---|
A----------------------------|
E---0--(hold)----------------|

Fig 3x2   [] Second time only
G-----------------------------------------------------------|
D-----------------------------------------------------------|
A-----------------------------------------------------------|
E-0--0---12-(12)/0----10--8-7--5----0---10/8-7-8-7-5-3[]----|

Fig 4x6
 ("Hey, I don't feel so good..") etc
G-----------------------|
D-----------------------|
A--------------0--------|
E--0---2---3-----3--2---|

Fig 5x5
  ("Ah!!!")
G--------------------|
D--------------------|
A------------0-------|
E--0---2---3---3--2--|
Fig 6x1
         (Triplet feel)
G------------------------------------|
D------------------5-4-2-0-----------|
A--------------------------4-2-0-----|
E--0---2---3---------------------3---|

Fig 7x? (a lot)
G------------------|
D------------------|
A------------------|
E--2--3--0-0-0-0---|

Fig 8x1
G--------------------------------------------------------------------|
D--------------------------------------------------------------Rest--|
A--------------------------------------------------------------------|
E--2--0--3--5--2--0--3--5--2--0--3--5--2--0--3--5--2-(hold)----------|
Fig 9x1
                           (Triplet feel)
G------------------------------------------------|
D-Rest-----------------------Rest----------------|
A----------------------------------4--2--0-------|
E--------0-0-0-0-0-2 (hold)-----------------3----|

Fig 10x2 (Verse 1)
G---------------------------------------------------------------------------------|
D---------------------------------------------------------------------------------|
A---------------------------------------------------------------------------------|
E--2-2-2-p0--2-2-2-p0--2-2-2-p0--2-2-2-p0--2-2-2-p0--2-2-2-p0--2-2-2-p0--3-3-3p0--|

Fig 11x1 (Verse 2)("Blood Thirsty Demon.........Sinister Fiend")
G---------------------------------------------------------|
D---------------------------------------------------------|
A---------------------------------------0-2--2-4--0-2--4--|
E--3-3-3p0--3-3-3p0--3-3-3p0--3-3-3--2--------------------|

Fig 11 continue (Verse 2)("Bludgenous Slaughter.........My Evil Deeds")
G---------------------------------------------------------|
D-------------------------------------------------2-4-----|
A---------------------------------------0-2--2-4-------2--|
E--3-3-3p0--3-3-3p0--3-3-3p0--3-3-3--2--------------------|

Fig 12x1
G------------------------------------------------------------------------------------------------|
D------------------------------------------------------------------------------------------------|
A------------------------------------------------------------------------------------------------|
E--2-2-2-0h2-2-2-0h2-2-2-0h2-2-2-0h2-2-2-0h2-2-2-0h2-2-2-0h-2-2-2-2-2-2-2-2-2-2-0---2---(2)/142--|

G-----------------|
D-------Rest------|
A-----------------|
E-----------------|
(Some sort of cool bass line is played after the long drawn out guitar part here, then
into Fig 13)

Fig 13 (Verse) ("Their bodies convulse in agony and pain...")
G---------------------------|
D---------------------------|
A---------------------------|
E--2-2-2-0-0-0-2-2-2-5-5-5--|

"First take out their organs.."
G-----------------|
D-----------------|
A-----------------|
E--2---(2)/14-----|

(Repeat Fig 13)"..And bloodbaths are my way of getting clean.."
G-----------------|
D-----------------|
A-----------------|
E--2---(2)/14-----|

(Repeat Fig 11)

Fig 14x1 ("A merciless butcher who lives..")   ("I'm out to destroy you and will cut you down")
G-------------------------------------------------------------------------------------|
D---------------------------------------------------Rest------------------------------|
A-------------------------------------------------------------------------------------|
E--3-3-3-3-3-5-5-5-5-5--3-0---2-------------------------------------------------------|
(The rest of the song is basically the same combination of Riffs.Here is the Riff played
the end of the song):
Fig 15          ("It's Black Friday")  ("Paint the devil on the wall.."
G-----------------------------------------------------------------------|
D-----------------------------------------------------------------------|
A-----------------0-0-------------------3-2-0---------------------------|
E--2-2-2-2-2-2-2------0--2-2-2-2-2-2-2----------------------------------|

i'd say its advanced because of all the stuff you have to remember. that and its david 
playing.

            
            
Suggest correction
Creating personal tab
Creating personal tab
You can edit any tab online and save it as your Personal.

You can edit, replace or remove any tab part or add personal notes – all changes will be seen only by you.

Personal tabs can be accessed anytime from any device, even offline.
Learn more »
Give kudos to tab author, rate the tab!
1 2 3 4 5
comments
print report bad tab
guest
You may want to rate the tab now too:
select rating
Wanna post a correction for this tab? Suggest correction