Oops, an error
Loading. Please wait.
We have an official Hangar 18 tab made by UG professional guitarists. Check out the tab »
×
405,842 views 549 this week
100 commentsread comments
1 2 3 4 5
x 166
add to favorites
×
Save as Personal and add changes to this tab that will be seen only by you. Learn more ›
×
You can save this tab as Personal to edit and correct it or add notes. All changes will be seen only by you. Learn more »
launch autoscroll
font size
0
reset
how to read this tab
guitar tuner
backing track
0:00
0:00
edit
Autoscroll
slow
fast
+/-
esc
set tempo
stop
Author
Difficulty
intermediate
Tuning: Standard


[Riff 1]

e|-1--1--1--1--1--1--1--1--1--1--1--1--1--1--1--1-|
B|-3--3--3--3--3--3--3--3--3--3--3--3--3--3--3--3-|
G|-2--2--2--2--2--2--2--2--2--2--2--2--2--2--2--2-|
D|-0--0--0--0--0--0--0--0--0--0--0--0--0--0--0--0-|
A|------------------------------------------------|
E|------------------------------------------------|

e|-1--1--1--1--1--1--1--1--1--1--1--1--1--1--1--1-|
B|-3--3--3--3--3--3--3--3--3--3--3--3--3--3--3--3-|
G|-3--3--3--3--3--3--3--3--3--3--3--3--3--3--3--3-|
D|-0--0--0--0--0--0--0--0--0--0--0--0--0--0--0--0-|
A|------------------------------------------------|
E|------------------------------------------------|

e|-1--1--1--1--1--1--1--1--1--1--1--1--1--1--1--1-|
B|-3--3--3--3--3--3--3--3--3--3--3--3--3--3--3--3-|
G|-4--4--4--4--4--4--4--4--4--4--4--4--4--4--4--4-|
D|-0--0--0--0--0--0--0--0--0--0--0--0--0--0--0--0-|
A|------------------------------------------------|
E|------------------------------------------------|

e|-5--5--5--5--5--5--5--5--5--5--5--5--5--5--5--5-|
B|-3--3--3--3--3--3--3--3--3--3--3--3--3--3--3--3-|
G|-5--5--5--5--5--5--5--5--5--5--5--5--5--5--5--5-|
D|-0--0--0--0--0--0--0--0--0--0--0--0--0--0--0--0-|
A|------------------------------------------------|
E|------------------------------------------------|

e|-5--5--5--5--5--5--5--5--5--5--5--5--5--5--5--5-|
B|-6--6--6--6--6--6--6--6--6--6--6--6--6--6--6--6-|
G|-7--7--7--7--7--7--7--7--7--7--7--7--7--7--7--7-|
D|------------------------------------------------|
A|------------------------------------------------|
E|------------------------------------------------|

e|-6--6--6--6--6--6--6--6--6--6--6--6--6--6--6--6-|
B|-6--6--6--6--6--6--6--6--6--6--6--6--6--6--6--6-|
G|-7--7--7--7--7--7--7--7--7--7--7--7--7--7--7--7-|
D|------------------------------------------------|
A|------------------------------------------------|
E|------------------------------------------------|

e|-7--7--7--7--7--7--7--7--7--7--7--7--7--7--7--7-|
B|-6--6--6--6--6--6--6--6--6--6--6--6--6--6--6--6-|
G|-7--7--7--7--7--7--7--7--7--7--7--7--7--7--7--7-|
D|------------------------------------------------|
A|------------------------------------------------|
E|------------------------------------------------|

e|-8--8--8--8--8--8--8--8--8--8--8--8--8--8--8--8-|
B|-8--8--8--8--8--8--8--8--8--8--8--8--8--8--8--8-|
G|-9--9--9--9--9--9--9--9--9--9--9--9--9--9--9--9-|
D|------------------------------------------------|
A|------------------------------------------------|
E|------------------------------------------------|


[Riff 2]

e|-----1-----5------------------1-----6-------|
B|---3---------6--------------3---------6-----|
G|-2-----2/------7----------3-----3/------7---|
D|-----------------0------------------------0-|  
A|--------------------------------------------|     
E|--------------------------------------------|     
                                                x2
e|-----1-----7------------------5-----8-------|   
B|---3---------6--------------3---------8-----|  
G|-4-----4/------7----------5-----5/------9---|  
D|-----------------0------------------------0-|
A|--------------------------------------------|
E|--------------------------------------------|


Guitar 2
e|-------------------------------|
B|-------------------------------|
G|-------------------------------|
D|-2--------3--------4--------5--|
A|-0--------1--------2--------3--|
E|-------------------------------|

e|-----------------------------------|
B|-----------------------------------|
G|-----------------------------------|
D|-7----7----8----8----9----9----10--|
A|-5----5----5----5----5----5-----5--|
E|-----------------------------------|


Lead into next section:

Guitar 1
e|-----------------|
B|-6-5-3-----------|
G|-------5-3-2-----|
D|-------------5-3-|
A|-----------------|
E|-----------------|

Guitar 2
e|--------------------|
B|-10-8---------------|
G|------10-9-7--------|
D|-------------10-9-7-|
A|--------------------|
E|--------------------|


[Riff 3]

Guitar 1
e|-----------------------------------|
B|-----------------------------------|
G|-2-----/7~--------3-----/7~--------|
D|---0-0--------0-0---0-0--------0-0-|
A|-----------------------------------|
E|-----------------------------------|
     * *        * *   * *        * *
e|-----------------------------------|
B|-----------------------------------|
G|-4-----/7~--------5-----/7~--------|
D|---0-0--------0-0---0-0--------0-0-|
A|-----------------------------------|
E|-----------------------------------|
     * *        * *   * *        * *

Guitar 2
e|-----------------------------------|
B|-----------------------------------|
G|-7-----/10~-------7-----/10~-------|
D|---0-0--------0-0---0-0--------0-0-|
A|-----------------------------------|
E|-----------------------------------|
     * *        * *   * *        * *
e|-----------------------------------|
B|-----------------------------------|
G|-7-----/10~-------9-----/12~-------|
D|---0-0--------0-0---0-0--------0-0-|
A|-----------------------------------|
E|-----------------------------------|
     * *        * *   * *        * *


[Riff 4]

Guitar 1
e|---------------------------|
B|---------------------------|
G|-7\-2~--------7\-3~--------|
D|----------0-0----------0-0-|
A|---------------------------|
E|---------------------------|
            * *          * *
  "Possibly I've seen..."
e|-----------------------------|
B|-----------------------------|
G|-7\-4~--------7-5---5~--(5)\-|
D|----------0-0-----0----------|
A|-----------------------------|
E|-----------------------------|
            * *     *
  "Hangar 18..."

Guitar 2
e|---------------------------|
B|---------------------------|
G|-10\-7~--------10\-7~------|
D|----------0-0----------0-0-|
A|---------------------------|
E|---------------------------|
            * *          * *
e|-------------------------------|
B|-------------------------------|
G|-10\-7~--------10-9---9~--(9)\-|
D|----------0-0-------0----------|
A|-------------------------------|
E|-------------------------------|
            * *       *


[Riff 5]

(Solo Rhythm)
e|----------------------------------|
B|----------------------------------|
G|-----2-----2---2------3-----3---3-|
D|---0-----0----------0-----0-------|
A|-0-----0-----0----1-----1-----1---|
E|----------------------------------|
   * *   * *   *    * *   * *   *
e|----------------------------------|
B|----------------------------------|
G|-----4-----4---4------3-----3---3-|
D|---0-----0----------0-----0-------|
A|-2-----2-----2----1-----1-----1---|
E|----------------------------------|
   * *   * *   *    * *   * *   *
e|----------------------------------|
B|----------------------------------|
G|-----2-----2---2------3-----3---3-|
D|---0-----0----------0-----0-------|
A|-0-----0-----0----1-----1-----1---|
E|----------------------------------|
   * *   * *   *    * *   * *   *
e|----------------------------------|
B|----------------------------------|
G|-----4-----4---4------5-----5---5-|
D|---0-----0----------0-----0-------|
A|-2-----2-----2----3-----3-----3---|
E|----------------------------------|
   * *   * *   *    * *   * *   *
e|----------------------------------|
B|----------------------------------|
G|-----2-----2---2------3-----3---3-|
D|---0-----0----------0-----0-------|
A|-0-----0-----0----1-----1-----1---|
E|----------------------------------|
   * *   * *   *    * *   * *   *
e|----------------------------------|
B|----------------------------------|
G|-----4-----4---4------3-----3---3-|
D|---0-----0----------0-----0-------|
A|-2-----2-----2----1-----1-----1---|
E|----------------------------------|
   * *   * *   *    * *   * *   *
e|----------------------------------|
B|----------------------------------|
G|-----2-----2---2------3-----3---3-|
D|---0-----0----------0-----0-------|
A|-0-----0-----0----1-----1-----1---|
E|----------------------------------|
   * *   * *   *    * *   * *   *
e|-----------------|
B|-----------------|
G|-----4-----4---4-|
D|---0-----0-------|
A|-2-----2-----2---|
E|-----------------|
   * *   * *   *


[Solo]

 (Friedman)
e|-------------------------------------------|
B|-15b17~~----15b17--{16}----(17)r15---------|
G|-----------------------------------14-17~~-|
D|-------------------------------------------|
A|-------------------------------------------|
E|-------------------------------------------|

e|-------15-17-17/20-17h20p17---------------|
B|----13----------------------20--x-(20)22~-|
G|-14----------------------------x----------|
D|------------------------------------------|
A|------------------------------------------|
E|------------------------------------------|

e|-------------------------------|
B|-20b22r20p18-18b20r18----------|
G|-------------------------19~~--|
D|-------------------------------|
A|-------------------------------|
E|-------------------------------|

e|---------------------------------------------|
B|---------------------------------------------|
G|-----10-----10---10--------12-------12----12-|
D|---------------------------------------------|
A|-8-8----8-8----8-----10-10----10-10----10----|
E|---------------------------------------------|
   * *    * *    *      *  *     *  *     *
e|-------------------------------------|
B|-------------------------------------|
G|-----10-----10---10------9-----9---9-|
D|-------------------------------------|
A|-8-8----8-8----8-----7-7---7-7---7---|
E|-------------------------------------|
   * *    * *    *     * *   * *   *
e|-17p13----------13-17p13-17p13-17p13--13-|
B|------15------15--------------------15---|
G|--------14--14---------------------------|
D|----------15-----------------------------|
A|-----------------------------------------|
E|-----------------------------------------|

e|-18p13----------13-18p13-15p12-13-12-------17p13---16p13---16-16~~-|
B|------15------15---------------------15-13------15------15---------|
G|--------15--15-----------------------------------------------------|
D|----------15-------------------------------------------------------|
A|-------------------------------------------------------------------|
E|-------------------------------------------------------------------|

e|-x-20b22----20p17-22b25~~~-(25)r22\-|
B|-x----------------------------------|
G|------------------------------------|
D|------------------------------------|
A|------------------------------------|
E|------------------------------------|

e|---------------------------------------------|
B|---------------------------------------------|
G|-----10-----10---10--------12-------12----12-|
D|---------------------------------------------|
A|-8-8----8-8----8-----10-10----10-10----10----|
E|---------------------------------------------|
   * *    * *    *      *  *     *  *     *
e|---------------------|
B|---------------------|
G|-----10-----10---10--|
D|---------------------|
A|-8-8----8-8----8-----|
E|---------------------|
   * *    * *    *

End Solo


Lead into next riff:

Guitar 1
e|-5-3-1-0--3-1-0----1-0-----------------|
B|----------------3------3-1--5-3-1---3~-|
G|----------------------------------3----|
D|---------------------------------------|
A|---------------------------------------|
E|---------------------------------------|

Guitar 2
e|-------------------------------------------|
B|-------------------------------------------|
G|-10-9-7----9-7------7------------------7~~-|
D|--------10-----10-8---10-8-7-10-8-7--------|
A|------------------------------------10-----|
E|-------------------------------------------|


Play Riff 3


[Riff 3]

Guitar 1
e|-----------------------------------|
B|-----------------------------------|
G|-2-----/7~--------3-----/7~--------|
D|---0-0--------0-0---0-0--------0-0-|
A|-----------------------------------|
E|-----------------------------------|
     * *        * *   * *        * *
e|-----------------------------------|
B|-----------------------------------|
G|-4-----/7~--------5-----/7~--------|
D|---0-0--------0-0---0-0--------0-0-|
A|-----------------------------------|
E|-----------------------------------|
     * *        * *   * *        * *
         
         
Play Riff 4   


[Riff 4]

Guitar 1
e|---------------------------|
B|---------------------------|
G|-7\-2~--------7\-3~--------|
D|----------0-0----------0-0-|
A|---------------------------|
E|---------------------------|
            * *          * *
 
e|-----------------------------|
B|-----------------------------|
G|-7\-4~--------7-5---5~--(5)\-|
D|----------0-0-----0----------|
A|-----------------------------|
E|-----------------------------|
            * *     *
 
Play Riff 5  Solo Rhythm


[Riff 5]

(Solo Rhythm)
e|----------------------------------|
B|----------------------------------|
G|-----2-----2---2------3-----3---3-|
D|---0-----0----------0-----0-------|
A|-0-----0-----0----1-----1-----1---|
E|----------------------------------|
   * *   * *   *    * *   * *   *
e|----------------------------------|
B|----------------------------------|
G|-----4-----4---4------3-----3---3-|
D|---0-----0----------0-----0-------|
A|-2-----2-----2----1-----1-----1---|
E|----------------------------------|
   * *   * *   *    * *   * *   *
e|----------------------------------|
B|----------------------------------|
G|-----2-----2---2------3-----3---3-|
D|---0-----0----------0-----0-------|
A|-0-----0-----0----1-----1-----1---|
E|----------------------------------|
   * *   * *   *    * *   * *   *
e|----------------------------------|
B|----------------------------------|
G|-----4-----4---4------5-----5---5-|
D|---0-----0----------0-----0-------|
A|-2-----2-----2----3-----3-----3---|
E|----------------------------------|
   * *   * *   *    * *   * *   *
e|----------------------------------|
B|----------------------------------|
G|-----2-----2---2------3-----3---3-|
D|---0-----0----------0-----0-------|
A|-0-----0-----0----1-----1-----1---|
E|----------------------------------|
   * *   * *   *    * *   * *   *
e|----------------------------------|
B|----------------------------------|
G|-----4-----4---4------3-----3---3-|
D|---0-----0----------0-----0-------|
A|-2-----2-----2----1-----1-----1---|
E|----------------------------------|
   * *   * *   *    * *   * *   *
e|----------------------------------|
B|----------------------------------|
G|-----2-----2---2------3-----3---3-|
D|---0-----0----------0-----0-------|
A|-0-----0-----0----1-----1-----1---|
E|----------------------------------|
   * *   * *   *    * *   * *   *
e|-----------------|
B|-----------------|
G|-----4-----4---4-|
D|---0-----0-------|
A|-2-----2-----2---|
E|-----------------|
   * *   * *   *

   
[Riff 5a]

(Solo Rhythm)
e|----------------------------------|
B|----------------------------------|
G|-----2-----2---2------3-----3---3-|
D|---0-----0----------0-----0-------|
A|-0-----0-----0----1-----1-----1---|
E|----------------------------------|
   * *   * *   *    * *   * *   *
e|----------------------------------|
B|----------------------------------|
G|-----4-----4---4------3-----3---3-|
D|---0-----0----------0-----0-------|
A|-2-----2-----2----1-----1-----1---|
E|----------------------------------|
   * *   * *   *    * *   * *   *
e|----------------------------------|
B|----------------------------------|
G|-----2-----2---2------3-----3---3-|
D|---0-----0----------0-----0-------|
A|-0-----0-----0----1-----1-----1---|
E|----------------------------------|
   * *   * *   *    * *   * *   *
e|----------------------------------|
B|----------------------------------|
G|-----4-----4---4------5-----5---5-|
D|---0-----0----------0-----0-------|
A|-2-----2-----2----3-----3-----3---|
E|----------------------------------|
   * *   * *   *    * *   * *   *
e|----------------------------------|
B|----------------------------------|
G|-----2-----2---2------3-----3---3-|
D|---0-----0----------0-----0-------|
A|-0-----0-----0----1-----1-----1---|
E|----------------------------------|
   * *   * *   *    * *   * *   *
e|----------------------------------|
B|----------------------------------|
G|-----4-----4---4------3-----3---3-|
D|---0-----0----------0-----0-------|
A|-2-----2-----2----1-----1-----1---|
E|----------------------------------|
   * *   * *   *    * *   * *   *
e|----------------------------------|
B|----------------------------------|
G|-----2-----2---2------3-----3---3-|
D|---0-----0----------0-----0-------|
A|-0-----0-----0----1-----1-----1---|
E|----------------------------------|
   * *   * *   *    * *   * *   *
e|----------------------------------|
B|----------------------------------|
G|-----4-----4---4------5-----5---5-|
D|---0-----0----------0-----0-------|
A|-2-----2-----2----3-----3-----3---|
E|----------------------------------|
   * *   * *   *    * *   * *   *
e|-----------------|
B|-----------------|
G|-----6-----6---6-|
D|---0-----0-------|
A|-4-----4-----4---|
E|-----------------|
   * *   * *  *


[Solo]

(Friedman)
e|-------------------------------------------------------|
B|-----------x-15-17-[17]18r17b18--{17}-(18)r17-15-18b20-|
G|---17b19~--x-------------------------------------------|
D|-x-----------------------------------------------------|
A|-x-----------------------------------------------------|
E|-------------------------------------------------------|

e|--------------------------------|
B|-18p15-15h18p15-----------------|
G|----------------17b19--(17)~~~\-|
D|--------------------------------|
A|--------------------------------|
E|--------------------------------|

e|---------------------------------------------|
B|---------------------------------------------|
G|-----10-----10---10--------12-------12----12-|
D|---------------------------------------------|
A|-8-8----8-8----8-----10-10----10-10----10----|
E|---------------------------------------------|
   * *    * *    *      *  *     *  *     *
e|-------------------------------------|
B|-------------------------------------|
G|-----10-----10---10------9-----9---9-|
D|-------------------------------------|
A|-8-8----8-8----8-----7-7---7-7---7---|
E|-------------------------------------|
   * *    * *    *     * *   * *   *
e|-------------------17---18~~-----------------17-19-16---------|
B|-20b22~~--18-17--------x------------17-18-20---------18-15----|
G|---------------19-----x-------17-19------------------------16-|
D|-----------------19-------------------------------------------|
A|--------------------------------------------------------------|
E|--------------------------------------------------------------|

e|-----------16-20b22r20-20b22--20-22b22~~\-|
B|-----15--18-------------------------------|
G|---16--19---------------------------------|
D|-18---------------------------------------|
A|------------------------------------------|
E|------------------------------------------|

e|---------------------------------------------|
B|---------------------------------------------|
G|-----10-----10---10--------12-------12----12-|
D|---------------------------------------------|
A|-8-8----8-8----8-----10-10----10-10----10----|
E|---------------------------------------------|
   * *    * *    *      *  *     *  *     *
e|-------------------------------------|
B|-------------------------------------|
G|-----10-----10---10------9-----9---9-|
D|-------------------------------------|
A|-8-8----8-8----8-----7-7---7-7---7---|
E|-------------------------------------|
   * *    * *    *     * *   * *   *
e|----------------------9-13p9----|
B|-----------------9h12--------12-|
G|--------------10----------------|
D|---------9h11-------------------|
A|------11------------------------|
E|-9h13---------------------------|

End Solo


[Riff 6]

(Solo Rhythm)      
e|--------------------------|
B|--------------------------|
G|-7------------------------|  x3
D|-------------------7-8----|
A|---5-5-5--5-8-5--5-5-6--5-|
E|--------------------------|

e|---------------------------|
B|---------------------------|
G|-7-------------------------|
D|-------------------6p5-----|
A|---5-5-5--5-8-5--5-----8p5-|
E|---------------------------|
                           x3
e|--------------------------|
B|--------------------------|
G|-7------------------------|
D|-------------------7-8----|
A|---5-5-5--5-8-5--5-5-6--5-|
E|--------------------------|

e|----------------------------|
B|----------------------------|
G|-7--------------------------|
D|------------6p5-----6p5-----|
A|---5-5-5--5-----8p5-----8p5-|
E|----------------------------|


[Solo]

(Friedman)
e|-------------------------------------------|
B|-15-----------13--------12/15\12-----------|
G|--------------------------------10---------|
D|----12~----10----10~--9-----------12\10/12-|
A|-------------------------------------------|
E|-------------------------------------------|

e|--------------------14/17-14-------------------------------|
B|-10p7h8-7--------10----------16-13~~\-----15/20-16---------|
G|----------8-7~~------------------------11----------17------|
D|------------------------------------------------------19~~-|
A|-----------------------------------------------------------|
E|-----------------------------------------------------------|

e|--------------11-15-14----11-------------------|
B|-----------13----------13----15----13----------|
G|--------12----------------------14----17b19~~\-|
D|-/12-13----------------------------------------|
A|-----------------------------------------------|
E|-----------------------------------------------|

e|-/17-14-14-14-15-11-11-14-10-10-10-11-8-8-10-6-6-6-|
B|---------------------------------------------------|
G|---------------------------------------------------|
D|---------------------------------------------------|
A|---------------------------------------------------|
E|---------------------------------------------------|

e|-8-5-5-6-5h6p5---5-------------------------|
B|---------------8---8-[8]10r8-8b10~~-(10)r8-|
G|-------------------------------------------|
D|-------------------------------------------|
A|-------------------------------------------|
E|-------------------------------------------|

e|------------------------------------------------------|
B|-7h8h10p8p7---7h8p7~~----10h11h13p11p10----10h11p10~~-|
G|------------8---------------------------12------------|
D|------------------------------------------------------|
A|------------------------------------------------------|
E|------------------------------------------------------|

e|----------------------------------------14-15-17-18b20~~-|
B|-13h15h16p15p13----15p13----13-13-15-16------------------|
G|----------------15-------15------------------------------|
D|---------------------------------------------------------|
A|---------------------------------------------------------|
E|---------------------------------------------------------|

End Solo


[Riff 7]

e|---------------------------|
B|---------------------------|
G|---------------------------|
D|-------4-----------------5-|
A|-----------------------5---|
E|-0h1/2---2--2-5-2--2-3-----|
                       * *
e|-----------------------------|
B|-----------------------------|
G|-----------------------------|
D|-------4---------------------|
A|---------------------3p2-----|
E|-0h1/2---2--2-5-2--2-----5p2-|

e|---------------------------|
B|---------------------------|
G|---------------------------|
D|-------4-----------------5-|
A|-----------------------5---|
E|-0h1/2---2--2-5-2--2-3-----|
                       * *
e|------------------------------|
B|------------------------------|
G|--------------5p4-----6p5-----|
D|-------4----------7p4-----8p5-|
A|------------------------------|
E|-0h1/2---2--2-----------------|

Play Riff 6  Solo Rhythm


[Riff 6]

(Solo Rhythm)       
e|--------------------------|
B|--------------------------|
G|-7------------------------| x3
D|-------------------7-8----|
A|---5-5-5--5-8-5--5-5-6--5-|
E|--------------------------|

e|---------------------------|
B|---------------------------|
G|-7-------------------------|
D|-------------------6p5-----|
A|---5-5-5--5-8-5--5-----8p5-|
E|---------------------------|
                            
e|--------------------------|
B|--------------------------|
G|-7------------------------|
D|-------------------7-8----| x3
A|---5-5-5--5-8-5--5-5-6--5-|
E|--------------------------|

e|----------------------------|
B|----------------------------|
G|-7--------------------------|
D|------------6p5-----6p5-----|
A|---5-5-5--5-----8p5-----8p5-|
E|----------------------------|


[Solo]

(Friedman)
e|----------------------------------------14-15p14--10-------|
B|----------10-13-10-13/15-13-15-10-13-15--------------13p10-|
G|----11-12--------------------------------------------------|
D|-12--------------------------------------------------------|
A|-----------------------------------------------------------|
E|-----------------------------------------------------------|

e|------------------------------------------|
B|-/22--------------------------------------|
G|-----17p14-17p14\11-12-11h12p11\-7b8r7----|
D|---------------------------------------10-|
A|------------------------------------------|
E|------------------------------------------|

e|--------------------------/15-11-------------|
B|-----7-10-9-10-7-8-7-4-----------13----------|
G|-7/8-------------------7------------14-11/13-|
D|---------------------------------------------|
A|---------------------------------------------|
E|---------------------------------------------|

e|-----------------------------17------------------|
B|----13-16--------13-16-15/16----16\15-13---------|
G|-14-------13--14-------------------------16b17~~-|
D|-------------------------------------------------|
A|-------------------------------------------------|
E|-------------------------------------------------|

e|----------------------------------------------------|
B|-10-10/13-13-13-13\12-12-12-12/20-20-20-20\19-19-19-|
G|----------------------------------------------------|
D|----------------------------------------------------|
A|----------------------------------------------------|
E|----------------------------------------------------|

e|-------------------------------------------------------------|
B|-19\13-13-13-13h15p13-10h13-15-12h13p12-10-12-13-12-10h12p10-|
G|-------------------------------------------------------------|
D|-------------------------------------------------------------|
A|-------------------------------------------------------------|
E|-------------------------------------------------------------|

e|----------------------7-8-10-12p10-8-10p8-7-10p8-7--7-8-7-----|
B|-8-12-10-8h10p8-7-8-10----------------------------10-----10-8-|
G|--------------------------------------------------------------|
D|--------------------------------------------------------------|
A|--------------------------------------------------------------|
E|--------------------------------------------------------------|

e|------10-------------------------------|
B|-7h10----10p7---7---7------------------|
G|--------------9---9---9b11--(11)r9-7~~-|
D|---------------------------------------|
A|---------------------------------------|
E|---------------------------------------|

End Solo


Play Riff 7


[Riff 7]

e|---------------------------|
B|---------------------------|
G|---------------------------|
D|-------4-----------------5-|
A|-----------------------5---|
E|-0h1/2---2--2-5-2--2-3-----|
                       * *
e|-----------------------------|
B|-----------------------------|
G|-----------------------------|
D|-------4---------------------|
A|---------------------3p2-----|
E|-0h1/2---2--2-5-2--2-----5p2-|

e|---------------------------|
B|---------------------------|
G|---------------------------|
D|-------4-----------------5-|
A|-----------------------5---|
E|-0h1/2---2--2-5-2--2-3-----|
                       * *
e|------------------------------|
B|------------------------------|
G|--------------5p4-----6p5-----|
D|-------4----------7p4-----8p5-|
A|------------------------------|
E|-0h1/2---2--2-----------------|


[Riff 8]

e|-----------------------------|
B|-----------------------------|
G|-----------------------------|
D|-----------------------------| x4
A|-----------------4/5-4/5-4/5-|
E|-3-2-0-2-3-5-3-2-2/3-2/3-2/3-|
   * * * * * * * *


Play Riff 7   Solo Rhythm


[Riff 7]

e|---------------------------|
B|---------------------------|
G|---------------------------|
D|-------4-----------------5-|
A|-----------------------5---|
E|-0h1/2---2--2-5-2--2-3-----|
                       * *
e|-----------------------------|
B|-----------------------------|
G|-----------------------------|
D|-------4---------------------|
A|---------------------3p2-----|
E|-0h1/2---2--2-5-2--2-----5p2-|

e|---------------------------|
B|---------------------------|
G|---------------------------|
D|-------4-----------------5-|
A|-----------------------5---|
E|-0h1/2---2--2-5-2--2-3-----|
                       * *
e|------------------------------|
B|------------------------------|
G|--------------5p4-----6p5-----|
D|-------4----------7p4-----8p5-|
A|------------------------------|
E|-0h1/2---2--2-----------------|


[Solo]

(Mustaine)
e|-17-17-17-17-17-16-14--17-17-17-17-17-16-14-|
B|--------------------------------------------|
G|--------------------------------------------|
D|--------------------------------------------|
A|--------------------------------------------|
E|--------------------------------------------|

e|-17-17-17-17-17-16-14--17-17-17-17-17-16-14-|
B|--------------------------------------------|
G|--------------------------------------------|
D|--------------------------------------------|
A|--------------------------------------------|
E|--------------------------------------------|

e|-17-17-17-17-17-16-14-----------------------|
B|-----------------------17-17-17-17-17-16-14-|
G|--------------------------------------------|
D|--------------------------------------------|
A|--------------------------------------------|
E|--------------------------------------------|

e|--------------------------------------------|
B|--------------------------------------------|
G|-16-16-15-15-14-14-----14-------------------|
D|-------------------16-----16-16-16-16-14----|
A|-----------------------------------------16-|
E|--------------------------------------------|

e|--------------------------------------------------------|
B|-----------------------------------------------16-------|
G|---14--14-14-----16-----14-----16--14-14h16/17----17h18-|
D|-14--14-----16-16--16-16--16-16--16---------------------|
A|--------------------------------------------------------|
E|--------------------------------------------------------|

e|----------------------------------x-|
B|-17-16-14-17-19p17p14-14-14-14-17-x-|
G|------------------------------------|
D|------------------------------------|
A|------------------------------------|
E|------------------------------------|

e|-14-17p14-14-17-14-19p17p14-14-14-19b21-19p17----19b21~~-|
B|----------------------------------------------19---------|
G|---------------------------------------------------------|
D|---------------------------------------------------------|
A|---------------------------------------------------------|
E|---------------------------------------------------------|

End Solo

Play Riff 8


[Riff 8]

e|-----------------------------|
B|-----------------------------|
G|-----------------------------|
D|-----------------------------| x4
A|-----------------4/5-4/5-4/5-|
E|-3-2-0-2-3-5-3-2-2/3-2/3-2/3-|

Play Riff 7   Solo Rhythm


[Riff 7]

e|---------------------------|
B|---------------------------|
G|---------------------------|
D|-------4-----------------5-|
A|-----------------------5---|
E|-0h1/2---2--2-5-2--2-3-----|
                       * *
e|-----------------------------|
B|-----------------------------|
G|-----------------------------|
D|-------4---------------------|
A|---------------------3p2-----|
E|-0h1/2---2--2-5-2--2-----5p2-|

e|---------------------------|
B|---------------------------|
G|---------------------------|
D|-------4-----------------5-|
A|-----------------------5---|
E|-0h1/2---2--2-5-2--2-3-----|
                       * *
e|------------------------------|
B|------------------------------|
G|--------------5p4-----6p5-----|
D|-------4----------7p4-----8p5-|
A|------------------------------|
E|-0h1/2---2--2-----------------|


[Solo]

(Friedman)
e|-------------------------------22b24r22--21p20----21~~\-|
B|-21b23r21--------------------------------------20-------|
G|-----------18-21b23~~----21-18--------------------------|
D|--------------------------------------------------------|
A|--------------------------------------------------------|
E|--------------------------------------------------------|

e|-------------14-15----------------------------------|
B|-------------------15-------------------------------|
G|-18p14----------------17-14----14-17-14h17p14h17p14-|
D|-------18-14----------------18----------------------|
A|----------------------------------------------------|
E|----------------------------------------------------|

e|---------------------------------------------------------------|
B|----14-17p14----17p14-----------14-17p14----17p14-------17b19\-|
G|-17----------17-------17-14--17----------17-------17-14--a-----|
D|---------------------------------------------------------------|
A|---------------------------------------------------------------|
E|---------------------------------------------------------------|

End Solo

Play Riff 8


[Riff 8]
e|-----------------------------|
B|-----------------------------|
G|-----------------------------|
D|-----------------------------| x4
A|-----------------4/5-4/5-4/5-|
E|-3-2-0-2-3-5-3-2-2/3-2/3-2/3-|

Play Riff 7   Solo Rhythm


[Riff 7]

e|---------------------------|
B|---------------------------|
G|---------------------------|
D|-------4-----------------5-|
A|-----------------------5---|
E|-0h1/2---2--2-5-2--2-3-----|
                       * *
e|-----------------------------|
B|-----------------------------|
G|-----------------------------|
D|-------4---------------------|
A|---------------------3p2-----|
E|-0h1/2---2--2-5-2--2-----5p2-|

e|---------------------------|
B|---------------------------|
G|---------------------------|
D|-------4-----------------5-|
A|-----------------------5---|
E|-0h1/2---2--2-5-2--2-3-----|
                       * *
e|------------------------------|
B|------------------------------|
G|--------------5p4-----6p5-----|
D|-------4----------7p4-----8p5-|
A|------------------------------|
E|-0h1/2---2--2-----------------|


[Solo]

(Mustaine)
e|-21-17-14-17-14-14-------------------|
B|-------------------21-17-14-17-14-14-|
G|-------------------------------------|
D|-------------------------------------|
A|-------------------------------------|
E|-------------------------------------|

e|-------------------------------------|
B|-21-17-14-17-14-14-------------------|
G|-------------------21-17-14-17-14-14-|
D|-------------------------------------|
A|-------------------------------------|
E|-------------------------------------|

e|-------------------------------------|
B|-21-17-14-17-14-14-------------------|
G|-------------------21-17-14-17-14-14-|
D|-------------------------------------|
A|-------------------------------------|
E|-------------------------------------|

e|-------------------------------------|
B|-------------------------------------|
G|-21-17-14-17-14-14-------------------|
D|-------------------21-17-14-17-14-14-|
A|-------------------------------------|
E|-------------------------------------|

e|-------------------------------------|
B|-------------------------------------|
G|-------------------------------------|
D|-21-17-14-17-14-14-------------------|
A|-------------------21-17-14-17-14-14-|
E|-------------------------------------|

e|---------------------------------------------|
B|---------------------------------------------|
G|---------------------------------------------|
D|------------------------------14h21-14h17h21-|
A|----------------14h21-14h17h21---------------|
E|-14h21-14h17h21------------------------------|

e|-------------------------------14h21p14\--------|
B|----------------14h21-14h17h21------------------|
G|-14h21-14h17h21---------------------------------|
D|------------------------------------------------|
A|-------------------------------------------/17~-|
E|------------------------------------------------|

End Solo

Play Riff 8


[Riff 8]

e|-----------------------------|
B|-----------------------------|
G|-----------------------------|
D|-----------------------------| x4
A|-----------------4/5-4/5-4/5-|
E|-3-2-0-2-3-5-3-2-2/3-2/3-2/3-|

Play Riff 7   Solo Rhythm


[Riff 7]

e|---------------------------|
B|---------------------------|
G|---------------------------|
D|-------4-----------------5-|
A|-----------------------5---|
E|-0h1/2---2--2-5-2--2-3-----|
                       * *
e|-----------------------------|
B|-----------------------------|
G|-----------------------------|
D|-------4---------------------|
A|---------------------3p2-----|
E|-0h1/2---2--2-5-2--2-----5p2-|

e|---------------------------|
B|---------------------------|
G|---------------------------|
D|-------4-----------------5-|
A|-----------------------5---|
E|-0h1/2---2--2-5-2--2-3-----|
                       * *
e|------------------------------|
B|------------------------------|
G|--------------5p4-----6p5-----|
D|-------4----------7p4-----8p5-|
A|------------------------------|
E|-0h1/2---2--2-----------------|


[Solo]

(Friedman)
e|------------------------10-9---------14p10-12----10-|
B|-9-12-10-9----10-9-----------12-10-9----------14----|
G|-----------11------11-9-----------------------------|
D|----------------------------------------------------|
A|----------------------------------------------------|
E|----------------------------------------------------|

e|---------------------12h14h18p14h18p14h18p14h18p14h18p14-------|
B|-13h14p10-14/15\14/15-----------------------------------17b19~-|
G|---------------------------------------------------------------|
D|---------------------------------------------------------------|
A|---------------------------------------------------------------|
E|---------------------------------------------------------------|

e|-14-------------14----------------------------------------|
B|---17p14------14--14-17p14-19-14-----------14-17-14-------|
G|--------16b18--------------------16b18r16-----------16b18-|
D|----------------------------------------------------------|
A|----------------------------------------------------------|
E|----------------------------------------------------------|

e|-14----------14----------------------14-------------|
B|----14h17--14---14-------------14-17----------------|
G|------------------16b18r16--14----------16-17b19~~\-|
D|----------------------------------------------------|
A|----------------------------------------------------|
E|----------------------------------------------------|

End Solo

Play Riff 8


[Riff 8]

e|-----------------------------|
B|-----------------------------|
G|-----------------------------|
D|-----------------------------| x4
A|-----------------4/5-4/5-4/5-|
E|-3-2-0-2-3-5-3-2-2/3-2/3-2/3-|

Play Riff 7  Solo Rhythm


[Riff 7]
e|---------------------------|
B|---------------------------|
G|---------------------------|
D|-------4-----------------5-|
A|-----------------------5---|
E|-0h1/2---2--2-5-2--2-3-----|
                       * *
e|-----------------------------|
B|-----------------------------|
G|-----------------------------|
D|-------4---------------------|
A|---------------------3p2-----|
E|-0h1/2---2--2-5-2--2-----5p2-|

e|---------------------------|
B|---------------------------|
G|---------------------------|
D|-------4-----------------5-|
A|-----------------------5---|
E|-0h1/2---2--2-5-2--2-3-----|
                       * *
e|------------------------------|
B|------------------------------|
G|--------------5p4-----6p5-----|
D|-------4----------7p4-----8p5-|
A|------------------------------|
E|-0h1/2---2--2-----------------|


[Solo]

(Mustaine)
e|-5-4-2-4-2---------------8-7-5-7-5---------------|
B|-----------5-5-4-2-2-4-5-----------8-8-7-5-5-7-8-|
G|-------------------------------------------------|
D|-------------------------------------------------|
A|-------------------------------------------------|
E|-------------------------------------------------|

e|-11-10-8-10-8--------------------|
B|--------------11-11-10-8-8-10-11-|
G|---------------------------------|
D|---------------------------------|
A|---------------------------------|
E|---------------------------------|

e|-14-13-11-13-11----------------------|
B|----------------14-14-13-11-11-13-14-|
G|-------------------------------------|
D|-------------------------------------|
A|-------------------------------------|
E|-------------------------------------|

e|-17-16-14-16-14----------------------|
B|----------------17-17-16-14-14-16-17-|
G|-------------------------------------|
D|-------------------------------------|
A|-------------------------------------|
E|-------------------------------------|

e|-20-19-17-19-17----------------------|
B|----------------20-20-19-17-17-19-20-|
G|-------------------------------------|
D|-------------------------------------|
A|-------------------------------------|
E|-------------------------------------|

e|-23-22-20-22-20--------------|
B|----------------23-23-22-20\-|
G|-----------------------------|
D|-----------------------------|
A|-----------------------------|
E|-----------------------------|

e|-/6/7/9/11/13/14/16/18/20/22/23/24b26-24b26-|
B|--------------------------------------------|  steady gliss, notes shown are random
G|--------------------------------------------|
D|--------------------------------------------|
A|--------------------------------------------|
E|--------------------------------------------|

e|-24b26----24b26----24b26----24b26-|
B|----------------------------------|
G|----------------------------------|
D|----------------------------------|
A|----------------------------------|
E|----------------------------------|

e|-24b26-24b26-24b26-24b26-24b26-24b26-24b26-24b26-|
B|-------------------------------------------------|
G|-------------------------------------------------|
D|-------------------------------------------------|
A|-------------------------------------------------|
E|-------------------------------------------------|

e|-24b26N--------(24b26N)--------(24b26N)\-|
B|--------------------------------------------|
G|--------------------------------------------|
D|--------------------------------------------|
A|--------------------------------------------|
E|--------------------------------------------|

End Solo


[Ending]

e|--------------------------------------------------|
B|--------------------------------------------------|
G|--------------------------------------------------|
D|--------------------------------------------------|
A|--5-------(5)----------------------4/5-4/5-4/5-4\-|
E|--3-------(3)------3-2-0-2-3-5-3-2-2/3-2/3-2/3-2\-|
                     * * * * * * * *



************************************

| x    Dead note
| (n)  Ghost note
| h    Hammer-on
| p    Pull-off
| r    Release
| b    Bend
| /    Slide up
| \    Slide down
| ~    Vibrato
| *    Palm mute
| N    Tremolo

************************************

            
            
Suggest correction
Creating personal tab
Creating personal tab
You can edit any tab online and save it as your Personal.

You can edit, replace or remove any tab part or add personal notes – all changes will be seen only by you.

Personal tabs can be accessed anytime from any device, even offline.
Learn more »
comments
print report bad tab
100 comments total. Showing first comments.
+2 reply
ChptOfDarkness 344 Oct 23, 2006 01:57 PM

its really long though. great tab. 5*. what do the "*" mean?

0 reply
Metallica rulz 72 Dec 17, 2006 09:47 AM

this is amazingly hard... but so awsome

+1 reply
Daniel_Harding 82 Dec 22, 2006 02:49 AM

Haha, my my this takes a while to learn, but tabbed so well!

guest
You may want to rate the tab now too:
select rating
Wanna post a correction for this tab? Suggest correction