Oops, an error
Loading. Please wait.

Kick The Chair tab

version 3
version 3

Whole song

Interactive

1,545 views 1 this week
no commentswrite comment
1 2 3 4 5
2 more votes to show rating
add to favorites
×
Save as Personal and add changes to this tab that will be seen only by you. Learn more ›
×
You can save this tab as Personal to edit and correct it or add notes. All changes will be seen only by you. Learn more »
launch autoscroll
font size
0
reset
how to read this tab
guitar tuner
backing track
0:00
0:00
edit
Autoscroll
slow
fast
+/-
esc
set tempo
stop
Author
   Intro
    Q=142
    F#5 E5                  G5  F#5 E5                  C5
   4/4
    Gtr I
      PM  PM--------------|       PM  PM--------------|
    E S E S S S S S S S S S E   E S E S S S S S S S S S E
||----------------------------|---------------------------|
||o---------------------------|---------------------------|
||----------------------------|---------------------------|
||----------------------------|-------------------------5-|
||o-4-4-2-2-----------------5-|-4-4-2-2-----------------3-|
||--2-2-0-0-2-2-2-2-0-0-2-2-3-|-2-2-0-0-2-2-2-2-0-0-2-2---|
|
|   Gtr II
|   W                           W
||----------------------------|---------------------------|
||o---------------------------|---------------------------|
||----------------------------|---------------------------|
||----------------------------|---------------------------|
||o---------------------------|---------------------------|
||----------------------------|---------------------------|


  F#5 E5                  D5  A5 G#5G5    G#5A5
    PM  PM--------------|
  E S E S S S S S S S S S E   E. E. Q  E. E.
|---------------------------|-------------------
|---------------------------|-------------------
|---------------------------|-------------------
|-------------------------7-|-------------------
|-4-4-2-2-----------------5-|-7--6--5--6--7-----
|-2-2-0-0-2-2-2-2-0-0-2-2---|-5--4--3--4--5-----
|
| W                           W
|---------------------------|-------------------
|---------------------------|-------------------
|---------------------------|-------------------
|---------------------------|-------------------
|---------------------------|-------------------
|---------------------------|-------------------


  F#5 E5                  C5  F#5 E5                  C5
    PM  PM--------------|       PM  PM--------------|
  E S E S S S S S S S S S E   E S E S S S S S S S S S E
|---------------------------|---------------------------|
|---------------------------|---------------------------|
|---------------------------|---------------------------|
|---------------------------|-------------------------5-|
|-4-4-2-2-----------------5-|-4-4-2-2-----------------3-|
|-2-2-0-0-2-2-2-2-0-0-2-2-3-|-2-2-0-0-2-2-2-2-0-0-2-2---|
|
| W                           W
|---------------------------|---------------------------|
|---------------------------|---------------------------|
|---------------------------|---------------------------|
|---------------------------|---------------------------|
|---------------------------|---------------------------|
|---------------------------|---------------------------|


  F#5 E5                  D5  A5  G#5 G5   G#5 A5
    PM  PM--------------|
  E S E S S S S S S S S S E    E.  E.  Q    E.  E.
|---------------------------|------------------------||
|---------------------------|-----------------------o||
|---------------------------|------------------------||
|-------------------------7-|------------------------||
|-4-4-2-2-----------------5-|--7---6---5----6---7---o||
|-2-2-0-0-2-2-2-2-0-0-2-2---|--5---4---3----4---5----||
|
|                              ~~~~~~~~~~~~~~~~~~~~
| W                            E.  E.  Q    E.  E.
|---------------------------|------------------------||
|---------------------------|-----------------------o||
|---------------------------|------------------------||
|---------------------------|------------------------||
|---------------------------|-[9]-[8]-[7]--[8]-[9]--o||
|---------------------------|------------------------||


                         1.,2.,3.
    F#5       F#5        F#5             F#5   G5
    Gtr I
      PM----|    PM----|         PM----|
    E E S S S E. E S S S S   +E  E S S S E. E.  E.  4x
||-------------------------|------------------------||
||o------------------------|-----------------------o||
||-------------------------|------------------------||
||-------------------------|------------------------||
||o-4---------4----------4-|-(4)---------4-----/5--o||
||--2-3-3-2-0-2--3-3-2-0-2-|-(2)-3-3-2-0-2--0--/3---||


  4.
  Gtrs I, II
  S S S S S S S S S S S S S S S S
|---------------------------------|
|---------------------------------|
|---------------------------------|
|---------------------------------|
|-5-4-3-2-----------------0-1-2-3-|
|---------5-4-3-2-0-1-2-3---------|


    F#5       F#5        F#5             F#5   G5
      PM----|    PM----|         PM----|
    E E S S S E. E S S S S   +E  E S S S E. E.  E.
||-------------------------|-----------------------|
||o------------------------|-----------------------|
||-------------------------|-----------------------|
||-------------------------|-----------------------|
||o-4---------4----------4-|-(4)---------4-----/5--|
||--2-3-3-2-0-2--3-3-2-0-2-|-(2)-3-3-2-0-2--0--/3--|


  F#5       F#5        F#5             F#5C5/G5
    PM----|    PM----|         PM----|
  E E S S S E. E S S S S   +E  E S S S E. E. E.
|------------------------|------------------------||
|------------------------|-----------------------o||
|------------------------|------------------------||
|------------------------|----------------5-------||
|-4---------4----------4-|-(4)---------4--3--5---o||
|-2-3-3-2-0-2--3-3-2-0-2-|-(2)-3-3-2-0-2--3--3----||


                       Verse 1
  E5 G5    F#5   G5     N.C.
                            PM----|                  PM----|   PM--------|
  E.  E. E E. E.  E     S S S S S S Q  E S S E   S S S S S S E S S S S S S E
|-------------------||-------------------------|-----------------------------|
|-------------------||o------------------------|-----------------------------|
|-------------------||-------------------------|-----------------------------|
|-------------------||-------------------------|-----------------------------|
|-2--/5----4-----/5-||o-2p0------------3-2h3p2-|-2p0-------------------------|
|-0--/3--0-2--0--/3-||------3-2-0-0-2----------|-----3-2-0-0-2-0-0-0-3-3-3-2-|


      PM----|                  PM----|
  S S S S S S Q  E S S E   S S S S S S E S S S S S S S S
|------------------------|-------------------------------
|------------------------|-------------------------------
|------------------------|-------------------------------
|------------------------|-------------------------------
|-2p0------------3-2h3p2-|-2p0-----------5-4-3-2---------
|-----3-2-0-0-2----------|-----3-2-0-0-2---------5-4-3-2-


      PM----|                  PM----|   PM--------|
  S S S S S S Q  E S S E   S S S S S S E S S S S S S E
|------------------------|-----------------------------
|------------------------|-----------------------------
|------------------------|-----------------------------
|------------------------|-----------------------------
|-2p0------------3-2h3p2-|-2p0-------------------------
|-----3-2-0-0-2----------|-----3-2-0-0-2-0-0-0-3-3-3-2-


  1.
      PM----|                  PM----|   PM--------|
  S S S S S S Q  E S S E   S S S S S S E S S S S S S E
|------------------------|------------------------------||
|------------------------|-----------------------------o||
|------------------------|------------------------------||
|------------------------|------------------------------||
|-2p0------------3-2h3p2-|-2p0-------------------------o||
|-----3-2-0-0-2----------|-----3-2-0-0-2-0-0-0-3-3-3-2--||


  2.
                E5 G5      F#5   G5 F#5     F#5
                                           2/4
                                            <
      PM----|
  S S S S S S E E.  E. E   E. E.  E Q  Q    H
|------------------------|----------------|------
|------------------------|----------------|------
|------------------------|----------------|------
|------------------------|----------------|------
|-2p0-----------2--/5----|-4-----/5-4-----|-4----
|-----3-2-0-0-2-0--/3--0-|-2--0--/3-2-----|-2----


   Chorus
    F#5       F#5        F#5             F#5   G5
   4/4
    Gtrs I, II
      PM----|    PM----|         PM----|
    E E S S S E. E S S S S   +E  E S S S E. E.  E.
||-------------------------|-----------------------|
||o------------------------|-----------------------|
||-------------------------|-----------------------|
||-------------------------|-----------------------|
||o-4---------4----------4-|-(4)---------4-----/5--|
||--2-3-3-2-0-2--3-3-2-0-2-|-(2)-3-3-2-0-2--0--/3--|


  F#5       F#5        F#5             F#5C5 G5
    PM----|    PM----|         PM----|
  E E S S S E. E S S S S   +E  E S S S E. E. E.
|------------------------|-----------------------||
|------------------------|----------------------o||
|------------------------|-----------------------||
|------------------------|----------------5------||
|-4---------4----------4-|-(4)---------4--3--5--o||
|-2-3-3-2-0-2--3-3-2-0-2-|-(2)-3-3-2-0-2--3--3---||


                       Verse 2
  E5 G5    F#5   G5     N.C.
                            PM----|                  PM----|   PM--------|
  E.  E. E E. E.  E     S S S S S S Q  E S S E   S S S S S S E S S S S S S E
|-------------------||-------------------------|-----------------------------|
|-------------------||o------------------------|-----------------------------|
|-------------------||-------------------------|-----------------------------|
|-------------------||-------------------------|-----------------------------|
|-2--/5----4-----/5-||o-2p0------------3-2h3p2-|-2p0-------------------------|
|-0--/3--0-2--0--/3-||------3-2-0-0-2----------|-----3-2-0-0-2-0-0-0-3-3-3-2-|


      PM----|                  PM----|
  S S S S S S Q  E S S E   S S S S S S E S S S S S S S S
|------------------------|-------------------------------|
|------------------------|-------------------------------|
|------------------------|-------------------------------|
|------------------------|-------------------------------|
|-2p0------------3-2h3p2-|-2p0-----------5-4-3-2---------|
|-----3-2-0-0-2----------|-----3-2-0-0-2---------5-4-3-2-|


      PM----|                  PM----|   PM--------|
  S S S S S S Q  E S S E   S S S S S S E S S S S S S E
|------------------------|-----------------------------|
|------------------------|-----------------------------|
|------------------------|-----------------------------|
|------------------------|-----------------------------|
|-2p0------------3-2h3p2-|-2p0-------------------------|
|-----3-2-0-0-2----------|-----3-2-0-0-2-0-0-0-3-3-3-2-|


  1.
      PM----|                  PM------------------------|
  S S S S S S Q  E S S E   S S S S S S S S S S S S S S S S
|------------------------|----------------------------------||
|------------------------|---------------------------------o||
|------------------------|----------------------------------||
|------------------------|----------------------------------||
|-2p0------------3-2h3p2-|-2p0---------------------0-1-2-3-o||
|-----3-2-0-0-2----------|-----3-2-0-0-2-0-0-1-2-3----------||


  2.
                E5 G5      F#5   G5 F#5     F#5
                                           2/4
                                            <
      PM----|
  S S S S S S E E.  E. E   E. E.  E Q  Q    H
|------------------------|----------------|------
|------------------------|----------------|------
|------------------------|----------------|------
|------------------------|----------------|------
|-2p0-----------2--/5----|-4-----/5-4-----|-4----
|-----3-2-0-0-2-0--/3--0-|-2--0--/3-2-----|-2----


   Chorus
    F#5       F#5        F#5             F#5   G5
   4/4
      PM----|    PM----|         PM----|
    E E S S S E. E S S S S   +E  E S S S E. E.  E.
||-------------------------|-----------------------|
||o------------------------|-----------------------|
||-------------------------|-----------------------|
||-------------------------|-----------------------|
||o-4---------4----------4-|-(4)---------4-----/5--|
||--2-3-3-2-0-2--3-3-2-0-2-|-(2)-3-3-2-0-2--0--/3--|


  1.
  F#5       F#5        F#5             F#5C5 G5
    PM----|    PM----|         PM----|
  E E S S S E. E S S S S   +E  E S S S E. E. E.
|------------------------|-----------------------||
|------------------------|----------------------o||
|------------------------|-----------------------||
|------------------------|----------------5------||
|-4---------4----------4-|-(4)---------4--3--5--o||
|-2-3-3-2-0-2--3-3-2-0-2-|-(2)-3-3-2-0-2--3--3---||


  2.
  F#5       F#5          A5  G#5G5   G#5
  Gtrs I, II
    PM----|    PM----|
  E E S S S E. E S S E    E. E. Q.   Q
|----------------------|----------------|
|----------------------|----------------|
|----------------------|----------------|
|----------------------|----------------|
|-4---------4----------|-/7--6--5----6--|
|-2-3-3-2-0-2--3-3-2-0-|-/5--4--3----4--|


   Solo 1 (Dave Mustaine)
    A5                                 Bb5
    Gtr I
    S S S S S S S S S S  S S S S S S   S S S S S S  S S S S  S S S S S S
||--7p5---5-7p5-8p5---5-10p5-8p5-7p5-|-8p5---5-8p5-10p5---5-10p5-8p5-7p5-|
||o-----5-----------5----------------|-----6------------6----------------|
||-----------------------------------|-----------------------------------|
||-----------------------------------|-----------------------------------|
||o----------------------------------|-----------------------------------|
||-----------------------------------|-----------------------------------|
|
|   Gtr II
|       PM-------------------------|       PM--------------------------|
|   E   S S S S S S S S  S S S S S S   E   S S S S  S S S S  S S S S S S
||-----------------------------------|-----------------------------------|
||o----------------------------------|-----------------------------------|
||-----------------------------------|-----------------------------------|
||-----------------------------------|-----------------------------------|
||o-7--------------------------------|-8---------------------------------|
||--5---5-5-5-5-5-5-5-5--5-5-5-5-5-5-|-6---6-6-6-6--6-6-6-6--6-6-6-6-6-6-|


                                    1.
  F5                                E5              G5          G#5
  S S S S S S S S S S S S S S S S   S S S S S S S S S S S S S S S S
|---------------------------------|-----------------7-5-4---5-4------||
|-6p3---3-6p3-5p3-6-5-3---5-3-----|-----------------------6-----6-5-o||
|-----4-----------------5-----5-4-|-5p4---4-5p4-7p4------------------||
|---------------------------------|-----7----------------------------||
|---------------------------------|---------------------------------o||
|---------------------------------|----------------------------------||
|
|     PM------------------------|       PM--------|     PM----|
| E   S S S S S S S S S S S S S S   E   S S S S S S E   S S S S E
|---------------------------------|----------------------------------||
|---------------------------------|---------------------------------o||
|---------------------------------|----------------------------------||
|---------------------------------|----------------------------------||
|-3-------------------------------|-2---------------5-----------6---o||
|-1---1-1-1-1-1-1-1-1-1-1-1-1-1-1-|-0---0-0-0-0-0-0-3---3-3-3-3-4----||


  2.
  E5                 G5             G#5
  Gtr I
   S S S  S S S  S S S  S S  S  S S  S S
|--7-5-4----5-4------4-------------------|
|---------6------6-5----6-5-----6-5------|
|----------------------------7-------7-5-|
|----------------------------------------|
|----------------------------------------|
|----------------------------------------|
|
| Gtr II
|  S S S  S S S  S S S  S S  S  S S  S S
|-10-8-7----8-7------7-------------------|
|--------10-----10-9---10-9----10-9------|
|---------------------------10------10-9-|
|----------------------------------------|
|----------------------------------------|
|----------------------------------------|
|
| Gtr III
|      PM----------|
|  E   S  S S S  S S E    S  S  S S  E
|----------------------------------------|
|----------------------------------------|
|----------------------------------------|
|----------------------------------------|
|--2-----------------5---------------6---|
|--0---0--0-0-0--0-0-3----3--3--3-3--4---|


    A5
     S S  S S  S S  S S  S S  S S  S S  S S
||---7p5----5--7p5--8p5----5-10p5--8p5--7p5-|
||o-------5--------------5------------------|
||------------------------------------------|
||------------------------------------------|
||o-----------------------------------------|
||------------------------------------------|
|
|    S S  S S  S S  S S  S S  S S  S S  S S
||--10p8----8-10p8-12p8----8-13p8-12p8-10p8-|
||o------10-------------10------------------|
||------------------------------------------|
||------------------------------------------|
||o-----------------------------------------|
||------------------------------------------|
|
|         PM------------------------------|
|    E    S S  S S  S S  S S  S S  S S  S S
||------------------------------------------|
||o-----------------------------------------|
||------------------------------------------|
||------------------------------------------|
||o--7--------------------------------------|
||---5----5-5--5-5--5-5--5-5--5-5--5-5--5-5-|


  Bb5
   S  S  S  S  S  S  S  S  S  S  S  S  S  S  S  S
|--8p=5-----5--8p=5-10p=5-----5-10p=5--8p=5--7p=5-|
|--------6-----------------6----------------------|
|-------------------------------------------------|
|-------------------------------------------------|
|-------------------------------------------------|
|-------------------------------------------------|
|
|  S  S  S  S  S  S  S  S  S  S  S  S  S  S  S  S
|-13p10----10-13p10-15p10----10-15p10-13p10-12p10-|
|-------10----------------10----------------------|
|-------------------------------------------------|
|-------------------------------------------------|
|-------------------------------------------------|
|-------------------------------------------------|
|
|  E     S  S  S  S  S  S  S  S  S  S  S  S  S  S
|-------------------------------------------------|
|-------------------------------------------------|
|-------------------------------------------------|
|-------------------------------------------------|
|--8----------------------------------------------|
|--6-----6--6--6--6--6--6--6--6--6--6--6--6--6--6-|


  F5
   S S S S  S S S S  S S S S S S S S
|------------------------------------|
|--6p3---3--6p3-5p3--6-5-3---5-3-----|
|------4-------------------5-----5-4-|
|------------------------------------|
|------------------------------------|
|------------------------------------|
|
|  S S S S  S S S S  S S S S S S S S
|------------------------------------|
|-10p6---6-10p6-8p6-10-8-6---8-6-----|
|------7-------------------9-----9-7-|
|------------------------------------|
|------------------------------------|
|------------------------------------|
|
|  E   S S  S S S S  S S S S S S S S
|------------------------------------|
|------------------------------------|
|------------------------------------|
|------------------------------------|
|--3---------------------------------|
|--1---1-1--1-1-1-1--1-1-1-1-1-1-1-1-|


  1.
  E5                G5            G#5
  S S  S S S S  S S  S S S  S S S  S S
|--------------------7-5-4----5-4-------||
|---------------------------6------6-5-o||
|-5p4----4-5p4--7p4---------------------||
|------7--------------------------------||
|--------------------------------------o||
|---------------------------------------||
|
| S S  S S S S  S S  S S S  S S S  S S
|-------------------10-8-7----8-7-------||
|--------------------------10-----10-9-o||
|-9-7----7-9-7-10-7---------------------||
|-----10--------------------------------||
|--------------------------------------o||
|---------------------------------------||
|
| E    S S S S  S S  E   S  S S S  E
|---------------------------------------||
|--------------------------------------o||
|---------------------------------------||
|---------------------------------------||
|-2------------------5-------------6---o||
|-0----0-0-0-0--0-0--3---3--3-3-3--4----||


  2.
  E5                 G5             G#5
   S S S  S S S  S S S  S S  S  S S  S S
|--7-5-4----5-4------4-------------------|
|---------6------6-5----6-5-----6-5------|
|----------------------------7-------7-5-|
|----------------------------------------|
|----------------------------------------|
|----------------------------------------|
|
|  S S S  S S S  S S S  S S  S  S S  S S
|-10-8-7----8-7------7-------------------|
|--------10-----10-9---10-9----10-9------|
|---------------------------10------10-9-|
|----------------------------------------|
|----------------------------------------|
|----------------------------------------|
|
|  E   S  S S S  S S E    S  S  S S  E
|----------------------------------------|
|----------------------------------------|
|----------------------------------------|
|----------------------------------------|
|--2-----------------5---------------6---|
|--0---0--0-0-0--0-0-3----3--3--3-3--4---|


 Interlude
  F5                               E5                 G5              G#5
   ~~
                                   |-----3------|      |-----3------|
   W                               Q    Q       Q      Q    Q       Q
|--------------------------------|-8---10-------8-----------------------|
|--------------------------------|--------------------12---10-------9---|
|-10-----------------------------|--------------------------------------|
|--------------------------------|--------------------------------------|
|--------------------------------|--------------------------------------|
|--------------------------------|--------------------------------------|
|
|  ~~
|                                  |-----3------|      |-----3------|
|  W                               Q    Q       Q      Q    Q       Q
|--------------------------------|--------------------------------------|
|--------------------------------|-5----6-------5-----------------------|
|--------------------------------|---------------------7----5-------4---|
|--7-----------------------------|--------------------------------------|
|--------------------------------|--------------------------------------|
|--------------------------------|--------------------------------------|
|
| Gtr II
|  E S S S S S S S S S S S S S S   E S    S S S   S S  E S    S S S   E
|--------------------------------|--------------------------------------|
|--------------------------------|--------------------------------------|
|--------------------------------|--------------------------------------|
|--------------------------------|--------------------------------------|
|--3-----------------------------|-2-------------------5--------------6-|
|--1-1-1-1-1-1-1-1-1-1-1-1-1-1-1-|-0-0----0-0-0---0-0--3-3----3-3-3---4-|


 Solo 2 (Dave Mustaine)
  A5 Bb5    E5 G5 G#5  A5  Bb5    E5      G5    G#5
  Gtr I
  TP                    TP          TP        TP
                                    |----3----|
  W                     H          +Q   Q     Q
|--------------------|----------------------------|
|--------------------|----------------------------|
|--------------------|----------------------------|
|-7------------------|-10---------(10)-12----13---|
|--------------------|----------------------------|
|--------------------|----------------------------|
|
|    Gtr II
| E. E. S S E. E. E     E. E. S S   E.    E.    E
|--------------------|----------------------------|
|--------------------|----------------------------|
|--------------------|----------------------------|
|--------------------|----------------------------|
|-7--8\-----2--5--6--|--7--8\-------2-----5-----6-|
|-5--6\-0-0-0--3--4--|--5--6\-0-0---0-----3-----4-|


  A5  Bb5    E5 G5 G#5    G5EG#5
   TP
   W                    W
|---------------------|-----------------------|
|---------------------|-----------------------|
|---------------------|-----------------------|
|-14------------------|-----------------------|
|---------------------|-x\--------------------|
|---------------------|-x\--------------------|
|
|  E. E. S S E. E. E    E.    E. S S E. E. E
|---------------------|-----------------------|
|---------------------|-----------------------|
|---------------------|-----------------------|
|---------------------|-----------------------|
|--7--8\-----2--5--6--|-7-----8\-----2--5--6--|
|--5--6\-0-0-0--3--4--|-5-----6\-0-0-0--3--4--|


  A5  Bb5    E5 G5 G#5  A5     Bb5       E5     G5    G#5
  Gtr III
   TP
                         |----3----|      |----3----|
   W                     Q   Q     Q      Q   Q     Q
|---------------------|-----10----12-----13--15----13---|
|-10------------------|-13------------------------------|
|---------------------|---------------------------------|
|---------------------|---------------------------------|
|---------------------|---------------------------------|
|---------------------|---------------------------------|
|
| Gtr II
|  E. E. S S E. E. E     E.    E.    S S  E.    E.    E
|---------------------|---------------------------------|
|---------------------|---------------------------------|
|---------------------|---------------------------------|
|---------------------|---------------------------------|
|--7--8\-----2--5--6--|--7-----8\---------2-----5-----6-|
|--5--6\-0-0-0--3--4--|--5-----6\----0-0--0-----3-----4-|


  A5  Bb5    E5 G5 G#5  A5     Bb5       E5  G5       G#5
   TP
                         |----3----|
   W                     Q   Q     Q      Q      E     E
|-12------------------|-17--19----20-----22-----22b24-22--|
|---------------------|-----------------------------------|
|---------------------|-----------------------------------|
|---------------------|-----------------------------------|
|---------------------|-----------------------------------|
|---------------------|-----------------------------------|
|
|  E. E. S S E. E. E     E.    E.    S S  E. E.        E
|---------------------|-----------------------------------|
|---------------------|-----------------------------------|
|---------------------|-----------------------------------|
|---------------------|-----------------------------------|
|--7--8\-----2--5--6--|--7-----8\---------2--5---------6--|
|--5--6\-0-0-0--3--4--|--5-----6\----0-0--0--3---------4--|


 Harmony
  A5
  Gtr I
   ~~~~~~
   Q          E    E     E.      E.       E
|---------------------------------------------|
|---------------------------------------------|
|---------------------------------------------|
|-----------------------14------12------------|
|-12---------11---12--------------------/12---|
|---------------------------------------------|
|
| Gtr III
|  ~~~~~~~~~~~~~~~~~~~~~~~~~~~~~~~~~~~~~~~~~~~~
|  H                    +H
|-22b24================(22)-------------------|
|---------------------------------------------|
|---------------------------------------------|
|---------------------------------------------|
|---------------------------------------------|
|---------------------------------------------|
|
| Gtr II
|  E     S S  S S  S S   S  S S  S  S S   S S
|---------------------------------------------|
|---------------------------------------------|
|---------------------------------------------|
|---------------------------------------------|
|--7------------------------------------------|
|--5-----5-5--5-5--5-5---5--5-5--5--5-5---5-5-|


  Bb5
    ~~~~~
    Q        E    E    E.      E.       E
|--------------------------------------------|
|--------------------------------------------|
|--------------------------------------------|
|---------------------14------12-------------|
|--10-------10---12-------------------/12----|
|--------------------------------------------|
|
|   >
|~~~~~~~
|  +W
|-(22)\--------------------------------------|
|--------------------------------------------|
|--------------------------------------------|
|--------------------------------------------|
|--------------------------------------------|
|--------------------------------------------|
|
|   E   S S  S S  S S  S  S S  S  S S   S S
|--------------------------------------------|
|--------------------------------------------|
|--------------------------------------------|
|--------------------------------------------|
|---8----------------------------------------|
|---6---6-6--6-6--6-6--6--6-6--6--6-6---6-6--|


  F5                                       E5               G5            G#5
  Gtr I
                                            ~~
   Q      E    E    E.      E.       E      Q      E    E    E.    E.       E
|----------------------------------------|------------------------------------|
|----------------------------------------|------------------------------------|
|----------------------------------------|------------------------------------|
|------------------14------12------------|------------------14----12----------|
|----------------------------------------|------------------------------------|
|-13-----12---13-------------------/13---|-12-----11---12-----------------/12-|
|
| Gtr II
|  E S S  S S  S S  S  S S  S  S S   S S    E S S  S S  S S  E  S  S  S S   E
|----------------------------------------|------------------------------------|
|----------------------------------------|------------------------------------|
|----------------------------------------|------------------------------------|
|----------------------------------------|------------------------------------|
|--3-------------------------------------|--2----------------5--------------6-|
|--1-1-1--1-1--1-1--1--1-1--1--1-1---1-1-|--0-0-0--0-0--0-0--3--3--3--3-3---4-|


  A5
  Gtr I
   ~~
   Q      E    E    E.      E.       E
|----------------------------------------|
|----------------------------------------|
|----------------------------------------|
|------------------14------12------------|
|-12-----11---12-------------------/12---|
|----------------------------------------|
|
| Gtr III
|  ~~
|  Q      E    E    E.      E.       E
|----------------------------------------|
|----------------------------------------|
|------------------12------10------------|
|-10------9---10-------------------/10---|
|----------------------------------------|
|----------------------------------------|
|
| Gtr II
|  E S S  S S  S S  S  S S  S  S S   S S
|----------------------------------------|
|----------------------------------------|
|----------------------------------------|
|----------------------------------------|
|--7-------------------------------------|
|--5-5-5--5-5--5-5--5--5-5--5--5-5---5-5-|


  Bb5
   ~~
   Q      E    E    E.      E.       E
|-----------------------------------------|
|-----------------------------------------|
|-----------------------------------------|
|------------------14------12-------------|
|-10-----10---12-------------------/10----|
|-----------------------------------------|
|
|  ~~
|  Q      E    E    E.      E.       E
|-----------------------------------------|
|-----------------------------------------|
|------------------12------10-------------|
|-10------9---10-------------------/10----|
|-----------------------------------------|
|-----------------------------------------|
|
|  E S S  S S  S S  S  S S  S  S S   S S
|-----------------------------------------|
|-----------------------------------------|
|-----------------------------------------|
|-----------------------------------------|
|--8--------------------------------------|
|--6-6-6--6-6--6-6--6--6-6--6--6-6---6-6--|


  F5                                       E5               G5            G#5
   ~~                                       ~~
   Q      E    E    E.      E.       E      Q      E    E    E.    E.       E
|----------------------------------------|------------------------------------|
|----------------------------------------|------------------------------------|
|----------------------------------------|------------------------------------|
|------------------14------12------------|------------------14----12----------|
|----------------------------------------|------------------------------------|
|-13-----12---13-------------------/13---|-12-----11---12-----------------/12-|
|
|  ~~                                       ~~
|  Q      E    E    E.      E.       E      Q      E    E    E.    E.       E
|----------------------------------------|------------------------------------|
|----------------------------------------|------------------------------------|
|------------------12------10------------|------------------12----10----------|
|-10------9---10-------------------/10---|--9------8----9------------------/9-|
|----------------------------------------|------------------------------------|
|----------------------------------------|------------------------------------|
|
|  E S S  S S  S S  S  S S  S  S S   S S    E S S  S S  S S  E  S  S  S S   E
|----------------------------------------|------------------------------------|
|----------------------------------------|------------------------------------|
|----------------------------------------|------------------------------------|
|----------------------------------------|------------------------------------|
|--3-------------------------------------|--2----------------5--------------6-|
|--1-1-1--1-1--1-1--1--1-1--1--1-1---1-1-|--0-0-0--0-0--0-0--3--3--3--3-3---4-|


  F5                                       E5 G5    F#5   G5
   ~~
   Q      E    E    E.      E.       E     E.  E. E E. E.  E
|----------------------------------------|---------------------|
|----------------------------------------|---------------------|
|----------------------------------------|---------------------|
|------------------14------12------------|---------------------|
|----------------------------------------|-2--/5----4-----/5---|
|-13-----12---13-------------------/13---|-0--/3--0-2--0--/3---|
|
|  ~~
|  Q      E    E    E.      E.       E     W
|----------------------------------------|---------------------|
|----------------------------------------|---------------------|
|------------------12------10------------|---------------------|
|-10------9---10-------------------/10---|---------------------|
|----------------------------------------|---------------------|
|----------------------------------------|---------------------|
|
|  E S S  S S  S S  S  S S  S  S S   S S   E.  E. E E. E.  E
|----------------------------------------|---------------------|
|----------------------------------------|---------------------|
|----------------------------------------|---------------------|
|----------------------------------------|---------------------|
|--3-------------------------------------|-2--/5----4-----/5---|
|--1-1-1--1-1--1-1--1--1-1--1--1-1---1-1-|-0--/3--0-2--0--/3---|


 Solo 3 (Chris Poland)
  F#5  E5                  G5  F#5   E5                    C5
  Gtr I
     PM  PM--------------|         PM    PM--------------|
   E S E S S S S S S S S S E   E   S E   S S S S S S S S S E
|----------------------------|---------------------------------|
|----------------------------|---------------------------------|
|----------------------------|---------------------------------|
|----------------------------|-----------------------------5---|
|--4-4-2-2-----------------5-|-4---4-2---2-----------------3---|
|--2-2-0-0-2-2-2-2-0-0-2-2-3-|-2---2-0---0-2-2-2-2-0-0-2-2-----|
|
| Gtr II
|  ~~
|  W                           S S S S S S S S S S S S S S S S
|----------------------------|---------------------------------|
|----------------------------|---------------------------------|
|----------------------------|-2-----3---3-2-------------------|
|-/4-------------------------|---4p2---4-----4-3-2-------------|
|----------------------------|---------------------4-3-2-0---3-|
|----------------------------|-----------------------------2---|


  F#5      E5                               D5
        PM     PM-------------------------|
  E     S   E  S S S  S     S   S  S   S  S E
|-----------------------------------------------|
|-----------------------------------------------|
|-----------------------------------------------|
|-------------------------------------------7---|
|-4-----4---2--2----------------------------5---|
|-2-----2---0--0-2-2--2-----2---0--0---2--2-----|
|
| E    +S   E.   E    E        +E     +Q
|-----------------------------------------------|
|-----------------------------------------------|
|----------10---------9b10=====(9)r===(9)-------|
|-9b10r(9)-----------10b11====(10)r==(10)-------|
|-----------------------------------------------|
|-----------------------------------------------|


  A5     G#5 G5   G#5 A5    F#5   E5                      G5
                                PM  PM------------------|
   E.     E.  Q    E.  E.     E S E S S S  S    S S S S S E
|-------------------------|---------------------------------|
|-------------------------|---------------------------------|
|-------------------------|---------------------------------|
|-------------------------|---------------------------------|
|--7------6---5----6---7--|---4-4-2-2---------------------5-|
|--5------4---3----4---5--|---2-2-0-0-2-2--2----2-0-0-2-2-3-|
|
|         ~~~~~~~             ~~~
|  E.     E.  Q    E.  E.     H            H
|-------------------------|---------------------------------|
|-------------------------|---------------12b14-------------|
|-------------------------|-/11-----------------------------|
|-------------------------|---------------------------------|
|-[9]b10-[8]-[7]--[8]-[9]-|---------------------------------|
|-------------------------|---------------------------------|


  F#5     E5                         C5
        PM     PM---------------|
   E    S   E  S S S S  S S S S   S  E
|--------------------------------------|
|--------------------------------------|
|--------------------------------------|
|------------------------------------5-|
|--4----4---2--2---------------------3-|
|--2----2---0--0-2-2-2--2-0-0-2---2----|
|
|                       ~~
|  E.      +E.   E.     Q        +E.
|--------------------------------------|
|-11b12r==(11)-------------------------|
|----------------9h====11-------(11)---|
|--------------------------------------|
|--------------------------------------|
|--------------------------------------|


  F#5     E5                        D5  A5           G#5 G5  G#5 A5
        PM       PM---------------|
   E    S E      S S S  S S S S S S E     E.          E.  Q   E.  E.
|-------------------------------------|------------------------------|
|-------------------------------------|------------------------------|
|-------------------------------------|------------------------------|
|-----------------------------------7-|------------------------------|
|--4----4-2------2------------------5-|---7-----------6---5---6---7--|
|--2----2-0------0-2-2--2-2-0-0-2-2---|---5-----------4---3---4---5--|
|
|                                                     ~~~~~~~~~~~~~~~~
|  Q         +Q         H                 S.     +S.  E.  Q   E.  E.
|-------------------------------------|------------------------------|
|----------------------19-------------|------------------------------|
|-17b19r====(17)----------------------|------------------------------|
|-------------------------------------|------------------------------|
|-------------------------------------|-[12]b13r(12)-11--10--11--12--|
|-------------------------------------|------------------------------|


  F#5         E5                             G5
         PM          PM-------------------|
   E     S    E      S  S S  S S  S  S  S  S  E
|-------------------------------------------------------|
|-------------------------------------------------------|
|-------------------------------------------------------|
|-------------------------------------------------------|
|--4-----4----2------2------------------------5---------|
|--2-----2----0------0--2-2--2-2--0--0--2--2--3---------|
|
|~~~~~~~~~~~~~~~~~~~~
|  E     E        E     E    E    S  S  S  S  S  S
|-------------------------------------------------------|
|-----------------4----19---17---14-17-14----14---------|
|-16b18r17b18r==(17)----------------------17----17pb18r=|
|-------------------------------------------------------|
|-------------------------------------------------------|
|-------------------------------------------------------|


  F#5        E5                              C5
           PM       PM--------------------|
    E      S  E     S  S  S S  S  S  S  S  S  E
|--------------------------------------------------|
|--------------------------------------------------|
|--------------------------------------------------|
|---------------------------------------------5----|
|---4------4--2-----2-------------------------3----|
|---2------2--0-----0--2--2-2--2--0--0--2--2-------|
|
|                                                ~~~
|  +E      S  S  S  S  S  E    S  S  S  S  S  S  S
|--------------------------------------------------|
|--------------------------------------------------|
|-(17)b18-14----16p14-15p14------------------------|
|------------16---------------16p14----------------|
|-----------------------------------16-14----------|
|-----------------------------------------17-14-17-|


  F#5  E5                   D5  A5 G#5G5 G#5A5
     PM  PM---------------|
   E S E S S S  S S S S S S E   E. E. Q  E. E.
|-----------------------------|----------------|
|-----------------------------|----------------|
|-----------------------------|----------------|
|---------------------------7-|----------------|
|--4-4-2-2------------------5-|-7--6--5--6--7--|
|--2-2-0-0-2-2--2-2-0-0-2-2---|-5--4--3--4--5--|
|
|~~~~~~~~~~~~~~~~~~~~~~~~~~~~~~~~~~~~~~~~~~~~~~
|  H            H               E. E. Q  E. E.
|-----------------------------|----------------|
|-----------------------------|----------------|
|-----------------------------|----------------|
|-----------------------------|----------------|
|-14-----------12-------------|-9--8--7--8--9--|
|-----------------------------|----------------|


  F#5   E5                            G5
      PM    PM----------------------|
   E  S  E  S  S     S S S S S   S  S   E
|------------------------------------------|
|------------------------------------------|
|------------------------------------------|
|------------------------------------------|
|--4--4--2--2---------------------------5--|
|--2--2--0--0--2-----2-2-2-0-0---2--2---3--|
|
|  E.    e.    Q.               +E     +E
|-------------17b19============(17)r==(17)-|
|-------19---------------------------------|
|-16---------------------------------------|
|------------------------------------------|
|------------------------------------------|
|------------------------------------------|


  F#5   E5                         C5      F#5      E5                            D5
      PM    PM-------------------|                PM       PM-------------------|
   E  S  E  S  S     S S S S S S S   E      E     S E      S S S   S   S S S  S S E
|----------------------------------------|-------------------------------------------|
|----------------------------------------|-------------------------------------------|
|----------------------------------------|-------------------------------------------|
|------------------------------------5---|----------------------------------------7--|
|--4--4--2--2------------------------3---|--4-----4-2------2----------------------5--|
|--2--2--0--0--2-----2-2-2-0-0-2-2-------|--2-----2-0------0-2-2---2---2-0-0--2-2----|
|
|  E.    e.    H                    +E      Q          +Q         +S   E.     Q
|-------------18b20================(18)r-|-19b21======(19)r======(19)----------------|
|-------14-------------------------------|----------------------------17h====19------|
|-16-------------------------------------|-------------------------------------------|
|----------------------------------------|-------------------------------------------|
|----------------------------------------|-------------------------------------------|
|----------------------------------------|-------------------------------------------|


  A5 G#5G5  G#5A5     A5  G#5 G5  G#5C5
  E. E. Q   E. E.      E.  E. Q   E. E.
|-------------------|---------------------|
|-------------------|---------------------|
|-------------------|---------------------|
|-------------------|----------------5----|
|-7--6--5---6--7----|--7---6--5---6--3----|
|-5--4--3---4--5----|--5---4--3---4-------|
|
|       ~~                    ~~
| E. E. H         E    E.  E. H         E
|-------------------|---------------------|
|-------------------|---------------------|
|-------------------|---------------------|
|-------------------|-11--10--9\----------|
|-9--8--7\----------|---------------------|
|-------------------|---------------------|


  A5  G#5 G5  G#5D5     A5  G#5 G5  G#5 Eb5   F#5
   E.  E. Q   E. E.      E.  E.  Q   E.  E.    H       H
|---------------------|---------------------|-----------------*|
|---------------------|---------------------|-----------------*|
|---------------------|---------------------|-----------------*|
|----------------7----|------------------8--|-----------------*|
|--7---6--5---6--5----|--7---6---5---6---6--|--4--------------*|
|--5---4--3---4-------|--5---4---3---4------|--2--------------*|
|
|         ~~             ~~~~~~~~~~
|  E.  E. H         E    E.  E.  Q   E.  E.    H.         Q
|---------------------|---------------------|-----------------*|
|---------------------|-14--13--12--13--14--|-17b19-----------*|
|-11--10--9\----------|---------------------|-----------------*|
|---------------------|---------------------|-----------------*|
|---------------------|---------------------|-----------------*|
|---------------------|---------------------|-----------------*|



Duration Legend
---------------
W - whole; H - half; Q - quarter; E - 8th; S - 16th; T - 32nd; X - 64th; a - acciaccatura
+ - note tied to previous; . - note dotted; .. - note double dotted
Uncapitalized letters represent notes that are staccato (1/2 duration)
Irregular groupings are notated above the duration line
Duration letters will always appear directly above the note/fret number it represents the
duration for.  Duration letters with no fret number below them represent rests.  Multi-
bar rests are notated in the form Wxn, where n is the number of bars to rest for.  Low
melody durations appear below the staff

Tablature Legend
----------------
 h   - hammer-on
 p   - pull-off
 b   - bend
 pb  - pre-bend
 r   - bend release (if no number after the r, then release immediately)
 /\  - slide into or out of (from/to "nowhere")
 s   - legato slide
 S   - shift slide
 - natural harmonic
[n]  - artificial harmonic
n(n) - tapped harmonic
 ~   - vibrato
 tr  - trill
 T   - tap
 TP  - trem. picking
 PM  - palm muting
\n/  - tremolo bar dip; n = amount to dip
 \n  - tremolo bar down
 n/  - tremolo bar up
/n\  - tremolo bar inverted dip
 =   - hold bend; also acts as connecting device for hammers/pulls
 <> - volume swell (louder/softer)
 x   - on rhythm slash represents muted slash
 o   - on rhythm slash represents single note slash

Misc Legend
-----------
 |  - bar
||  - double bar
||o - repeat start
o|| - repeat end
*|  - double bar (ending)
 :  - bar (freetime)
 $  - Segno
 &  - Coda
Tempo markers -  = BPM(8/16=s8/s16), where s8 = swing 8ths, s16 = swing 16ths


            
            
Suggest correction
Creating personal tab
Creating personal tab
You can edit any tab online and save it as your Personal.

You can edit, replace or remove any tab part or add personal notes – all changes will be seen only by you.

Personal tabs can be accessed anytime from any device, even offline.
Learn more »
Give kudos to tab author, rate the tab!
1 2 3 4 5
comments
print report bad tab
guest
You may want to rate the tab now too:
select rating
Wanna post a correction for this tab? Suggest correction