Oops, an error
Loading. Please wait.

Mechanix bass

version 1
version 1

Whole song

Interactive

6,586 views 3 this week
1 commentread comment
1 2 3 4 5
x 6
add to favorites
×
Save as Personal and add changes to this tab that will be seen only by you. Learn more ›
×
You can save this tab as Personal to edit and correct it or add notes. All changes will be seen only by you. Learn more »
launch autoscroll
font size
0
reset
guitar tuner
backing track
0:00
0:00
edit
Autoscroll
slow
fast
+/-
esc
set tempo
stop
Author
Difficulty
Song: MECHANIX
Artist: MEGADETH
Bass tab, tabbed by TheBard (bodiesovertheocean@hotmail.com)

p= pull
h= hammer on
~= hold/bend slightly (legato)

STANDARD TUNING (EADG) –check with original for specific tone
Effects: CLEAN


INTRO: 1x
G ||------x------|------x------|------x-----|------x------|
D ||------x------|------x------|------x-----|------x------|
A ||------x -----|------x------|------x-----|------x------|
E ||------x----- |------x------|------x-----|------x------|


G |------------|-----------------------|------------|
D |------------|-------------0-3-2-----|------------|
A |---2~--3~---|---------3-2--------3--|---2~--3~---|
E |------------|--2p3h3----------------|------------|


G |-------------|------------|----------|--------------|
D |-------------|------------|----------|--------------|
A |-------------|---2~--3~---|----------|---2~--3~-----|
E |--0-2p3h0~---|------------|--2p3h3~--|--------------|


G |------------|---x---|---x---|-----------|--------------------|
D |------------|---x---|---x---|-----------|--------------------|
A |------------|---x---|---x---|-----------|----3-----5-3-------|
E |--0-2p3h0---|---x---|---x---|--0--0-----|-------3--------0---|


G |---x---|-----------|-------------------|----|
D |---x---|-----------|-------------------|----|
A |---x---|-----------|----3-----5-3------|----|
E |---x---|-----0--0--|-------3--------0--|----|

VERSE- 2x
G |-------------------------|-------------------------|
D |--*----------------------|-------------------------|
A |--*------------------5~--|-------------------3h5---|
E |------0-0-0-0-0-0-0------|---0-0-0-0-0-0-----------|


G |------------------------------------|-----|
D |-----------------5-2--------------*-|-----|
A |---------------------3---5-3------*-|-----|
E |--0-0-0-0-0-0-0--------3-----0------|-----|

CHORUS 1- 1x
G |-------------------|----------------------|
D |-------------------|----------------------|
A |-------------------|----------------------|
E |--0-0-0-0-0-0-0-0--|--0-0-0-0-0-0-0-0-0---|


G |---------------|-----------------|-----------|----|
D |---------------|-----------------|-----------|----|
A |---------------|-----------------|-----------|----|
E |--3-3-3-5-3-0--|--0-0-0-0-0-0-0--|--3p5r3-0--|----|

CHORUS 2- 2x
G |-------------------------|-----------------------------------|----|
D |-*-----------------------|---------------------------------*-|----|
A |-*------------------7-7--|---------------------3---5-3-----*-|----|
E |----0-0-0-0-0-0-0-0------|--0-0-0-0-0-0-0-0-0----3-----0-----|----|

REPEAT: VERSE
        CHORUS 1
        CHORUS 2

INTERLUDE-
G |---x---|---x---|---x---|-------------------------------|
D |---x---|---x---|---x---|-------------------------------|
A |---x---|---x---|---x---|-(7p)8r7-----------------------|
E |---x---|---x---|---x---|----------0-0-0-0-0-0-0-0-0----|


G |---------------------------------|
D |---------------------------------|
A |--8-7------------------7p8h8-----|
E |------0-0-0-0-0-0-0-0------------|


repeat 3x
G |-----------------------------------------------|----|
D |--*-----------------------------------------*--|----|
A |--*---8-7---------------8~------------------*--|----|
E |----------0-0-0-0-0-0-0-----0-0-0-0-0-0-0------|----|


repeat 2x
G |-------------------------|----|
D |--*------------------ *--|----|
A |--*---8-7-6-----------*--|----|
E |-------------8-7-6-0-----|----|


G |-------------|--------------|---------------------|
D |-------------|--------------|---------------------|
A |-------------|--3---5-3-----|---------------------|
E |---0-0-------|----3-----0---|---0---0---0---0-----|


G |------------------|-----------------|-------------|----|
D |------------------|-----------------|-------------|----|
A |------------------|-----------------|--3---5-3----|----|
E |---0---0---0---0--|--0---0---0---0--|----3-----0--|----|

REPEAT: VERSE
        CHORUS 1
        CHORUS 2

BRIDGE
repeat 2x
G |--------------------------------------------------|
D |-*------------------------------------------------|
A |-*----------------------8-7------------------8~---|
E |----0-0-0-0-0-0-0-0-0-0------0-0-0-0-0-0-0-0------|


G |-------------------------------------------------|----|
D |-----------------------------------------------*-|----|
A |-------------------8-7---------------------8~--*-|----|
E |--0-0-0-0-0-0-0-0-------0-0-0-0-0-0-0-0-0--------|----|


(GUITAR SOLO ENTRANCE)
G |--------------------------------------------|
D |--------------------------------------------|
A |--8-7------------------8~-------------------|
E |-------0-0-0-0-0-0-0-0----0-0-0-0-0-0-0-----|


G |--------------------------------------------|
D |--------------------------------------------|
A |--8-7-----------------8-7-------------------|
E |------0-0-0-0-0-0-0-0-----0-0-0-0-0-0-0-0---|


G |--------------------------------------------------|
D |--------------------------------------------------|
A |--8-7---------------------8~----------------------|
E |------0-0-0-0-0-0-0-0-0-0-----0-0-0-0-0-0-0-0-0---|


repeat 2x
G |------------------------------------------------|
D |-*----------------------------------------------|
A |-*--8-7-------------------8~--------------------|
E |--------0-0-0-0-0-0-0-0-0-----0-0-0-0-0-0-0-0---|


G |--------------------------------------------|----|
D |------------------------------------------*-|----|
A |--8-7-----------------8~------------------*-|----|
E |------0-0-0-0-0-0-0-0----0-0-0-0-0-0-0-0----|----|


OUTRO- 1x
G |-----------------------------------------------|
D |-----------------------------------------------|
A |--8-7-------------------8~---------------------|
E |------0-0-0-0-0-0-0-0-0-----0-0-0-0-0-0-0-0-0--|


G |---------------------------------||
D |---------------------------------||
A |--8-7----------------3---5-3-----||
E |-------0-0-0-0-0-0-0---3-----0---||

            
            
Suggest correction
Creating personal tab
Creating personal tab
You can edit any tab online and save it as your Personal.

You can edit, replace or remove any tab part or add personal notes – all changes will be seen only by you.

Personal tabs can be accessed anytime from any device, even offline.
Learn more »
comments
print report bad tab
1 comment total.
0 reply
IbanezBassman 140 Jun 09, 2008 09:54 PM

It's better than the guitar pro version but you need that bit at 2:30, it's okay.

guest
You may want to rate the tab now too:
select rating
Wanna post a correction for this tab? Suggest correction