Oops, an error
Loading. Please wait.
We have an official Peace Sells tab made by UG professional guitarists. Check out the tab »
×
9,214 views 33 this week
3 commentsread comments
1 2 3 4 5
x 18
add to favorites
×
Save as Personal and add changes to this tab that will be seen only by you. Learn more ›
×
You can save this tab as Personal to edit and correct it or add notes. All changes will be seen only by you. Learn more »
launch autoscroll
font size
0
reset
guitar tuner
backing track
0:00
0:00
edit
Autoscroll
slow
fast
+/-
esc
set tempo
stop
Author
Difficulty
intermediate
-------------------------------------------------------------------------------
                             Megadeth - Peace Sells
-------------------------------------------------------------------------------
Tabbed by: Zaqq

Tuning: a quarter step down (EADG downtuned a bit)

Note: tabbed using the original bass master track:
      http://www.youtube.com/watch?v=3ate4_u8YP4

  Intro
G|-------------------|-----------------|
D|-------5--------78-|-------5---------| x 3
A|-7--57-----7-5-----|-7--57-----7-----|
E|---------0---------|---------0---5-6-|
  (you may use hammer-on's)
G|-------------------|-----------------|
D|-------5--------78-|-------5---------|
A|-7--57-----7-5-----|-7--57-----7-----|
E|---------0---------|---------0---6-5-|
                              P.M. ---|
  Verse
G|-----------------|-----------------|-----------------|-----------------|
D|-----------------|-----------------|-----------------|-----------------| x 4
A|-----------------|-----------------|-----------------|-----------------|
E|-0-0-0-0-0-0-0-4-|-0-0-0-0-0-0-0-3-|-0-0-0-0-0-0-0-4-|-0-0-0-0-0-0-6-5-|

  Chorus
G|-----------------|-----------------|-----------------|-----------------|
D|-----------5-----|-----------------|-----------5-----|-----------------|
A|-7-7-5-7-------5-|-7-7--REST-------|-7-7-5-7---------|-----------------|
E|---------0---0---|-----------------|---------0---0-2-|-3-3--REST-------|

G|-----------------|-----------------|
D|-----------------|-----------------|
A|-----------5-----|---------------3-|
E|-3-3-2-3-0---0-2-|-3-3-3-3-3-2-1---|
  
  1st guitar solo: play Verse riff x 1

  Verse riff x 4

  Chorus riff x 1

  Interlude
G|-----------------|     |-----------------|
D|-----------------|     |-----------------|
A|-----------------| x 3 |-----------------|
E|-0-0-0-0-0-0-0-0-|     |-0-0-0-0-0-0-323-|

G|-----------------|     |-----------------|
D|-----------------|     |-----------------|
A|-----------------| x 3 |-----------------|
E|-0-0-0-0-0-0-0-0-|     |-0-0-0-0-0-0-4-3-|


  2nd guitar solo
G|-----------------|-----------------|-------------------|-----------------|
D|-----------------|-----------------|-------------------|-----------------| x 3
A|-----------------|-----------------|-----10910-----979-|-----757---------|
E|-2-2-2-2-2-2-2-3-|-3-3-3-2-2-2-3-2-|-0-0-------0-0-----|-0-0-----0-0-4-3-|

                                         (10 9 10, not 1 0 9 1 0,
                                     also no hammer-on's or pull-off's)

G|-----------------|-----------------|-----------------|
D|-----------------|-----------------|-----------------|
A|-----------------|-------------5-6-|-7---------------|
E|-2-2-2-2-2-2-2-3-|-3-3-3-2-2-0-----|-0---------------|
                                       let ring for 6 bars

  Bridge
G|------------------|     |-----------9999--|
D|------------------|     |-----------------|
A|-77--77----7777---| x 7 |-77--77----------|
E|---00--0000----00-|     |---00--0000------|
 (very fast picking)

G|-----------------|-----------------|-----------------|-----------------|
D|-----------------|-----------------|-----------------|-----------------|
A|-----------------|-----------------|-----------------|-2-2-2-2-2-2-2-2-|
E|-0-0-0-0-0-0-0-0-|-3-3-3-3-3-3-3-3-|-2-2-2-2-2-2-2-2-|-----------------|

G|-----------------|-----------------|-----------------|-----------------|
D|-----------------|-----------------|-----------------|-----------------|
A|-----------------|-----------------|-----------------|-2-2-2-3-2-------|
E|-0-0-0-0-0-0-0-0-|-3-3-3-3-3-3-3-3-|-2-2-2-2-2-2-2-2-|-----------3-2-3-|

  Chorus
G|-----------------|-----------------|-----------------|-----------------|
D|-----------------|-----------------|-----------------|-----------------|
A|-----------------|-----------------|-----------------|-2-2-2-2-2-2-2-2-|
E|-0-0-0-0-0-0-0-0-|-3-3-3-3-3-3-3-3-|-2-2-2-2-2-2-2-2-|-----------------|

                                                        let ring -------|
G|-----------------|-----------------|-----------------|-------------4---|
D|-----------------|-----------------|-----------------|-----------4---4-|
A|-----------------|-----------------|-----------------|-2-2-2-2-2-------|
E|-0-0-0-0-0-0-0-0-|-3-3-3-3-3-3-3-3-|-2-2-2-2-2-2-2-2-|-----------------|

  3rd guitar solo
G|-----------------|-----------------|-----------------|-----------------|
D|-----------------|-----------------|-----------------|-----------------|
A|-----------------|-----------------|-----------------|-2-2-2-2-2-2-2-2-|
E|-0-0-0-0-0-0-0-0-|-3-3-3-3-3-3-3-3-|-2-2-2-2-2-2-2-2-|-----------------|

                                                        let ring -------|
G|-----------------|-----------------|-----------------|-------------4---|
D|-----------------|-----------------|-----------------|-----------4---4-|
A|-----------------|-----------------|-----------------|-2-2-2-2-2-------|
E|-0-0-0-0-0-0-0-0-|-3-3-3-3-3-3-3-3-|-2-2-2-2-2-2-2-2-|-----------------|

  Chorus
G|-----------------|-----------------|-----------------|-----------------|
D|-----------------|-----------------|-----------------|-----------------|
A|-----------------|-----------------|-----------------|-2-2-2-2-2-2-2-2-|
E|-0-0-0-0-0-0-0-0-|-3-3-3-3-3-3-3-3-|-2-2-2-2-2-2-2-2-|-----------------|

G|-----------------|-----------------|-----------------|-----------------|
D|-----------------|-----------------|-----------------|-----------------|
A|-----------------|-----------------|-----------------|-2-2-2-2-2-3-2---|
E|-0-0-0-0-0-0-0-0-|-3-3-3-3-3-3-3-3-|-2-2-2-2-2-2-2-2-|---------------3-|

G|-----------------|-----------------|-----------------|-----------------|
D|-----------------|-----------------|-----------------|-----------------|
A|-----------------|-----------------|-----------------|-2-2-2-2-2-2-2-2-|
E|-0-0-0-0-0-0-0-0-|-3-3-3-3-3-3-3-3-|-2-2-2-2-2-2-2-2-|-----------------|

G|-----------------|-----------------|-----------------|-----------------|
D|-----------------|-----------------|-----------------|-----------------|
A|-----------------|-----------------|-----------------|-2-2-2-2-2-2-----|
E|-0-0-0-0-0-0-0-0-|-3-3-3-3-3-3-3-3-|-2-2-2-2-2-2-2-2-|-------------4-3-|

G|-----------------|-----------------|
D|-----------------|-----------------|
A|-----------------|-----------------|
E|-2-1-0-1-2-1-0-2-|-3-3-3-3-2-2-3-2-|

  4th guitar solo
G|------------------|-----------------|-----------------|-----------------|
D|------------------|-----------------|-----------------|-----------------| x 3
A|------------------|-----------------|-----------------|-----------------|
E|-0-0-0-0-0-0-0-56-|-0-0-0-0-0-0-4-3-|-2-1-0-1-2-1-0-2-|-3-3-3-3-2-2-3-2-|
 (fast hammer-on ^)
G|------------------|
D|------------------|
A|------------------|
E|-0--REST----------|


| h  hammer-on
| p  pull-off
| P.M. palm-muting

===============================================================================

            
            
Suggest correction
Creating personal tab
Creating personal tab
You can edit any tab online and save it as your Personal.

You can edit, replace or remove any tab part or add personal notes – all changes will be seen only by you.

Personal tabs can be accessed anytime from any device, even offline.
Learn more »
comments
print report bad tab
3 comments total.
+1 reply
J8K8 838 Aug 23, 2013 12:46 PM

This one is MUCH better than the previous one! Great job! 5 stars from here!

+1 reply
SOADMarinaBR 10 Jan 25, 2014 05:09 AM

Good job dude :p

0 reply
alokcfc 10 Apr 22, 2015 07:44 AM

I think the first chorus should be like:

G----------------------
D--------------5-------
A------7-7-5-7---5-7---
E----------------------

guest
You may want to rate the tab now too:
select rating
Wanna post a correction for this tab? Suggest correction