Oops, an error
Loading. Please wait.

Sweating Bullets bass

version 2
version 2

Whole song

Interactive

9,037 views 1 this week
no commentswrite comment
1 2 3 4 5
x 3
add to favorites
×
Save as Personal and add changes to this tab that will be seen only by you. Learn more ›
×
You can save this tab as Personal to edit and correct it or add notes. All changes will be seen only by you. Learn more »
launch autoscroll
font size
0
reset
guitar tuner
backing track
0:00
0:00
edit
Autoscroll
slow
fast
+/-
esc
set tempo
stop
Author
Difficulty
Intro

G|-------------------------------|
D|-------------------------------|
A|-------------2-1---------------|
E|-0----2-3-----------3-2----2-3-|


G|------------------------------|
D|------------------------------|
A|-------------2-1----5-3-------|
E|-0----2-3-------------------3-|


G|---------------------------------|
D|---------------------------------|
A|-------------2-1-----------------|
E|-0----2-3-----------3-2----2-3-0-|




Riff 1                      x4

G|---------------------------|-------|
D|---------------------------|-------|
A|---------------------------|-------|
E|-6-5--0-------------6-5--0-|--X\\--|
         "Hello me..."



Riff 2


G|----------------------------|
D|----------------------------|
A|----------------------------|
E|-0--3--5--0-3--6--5--0--6-5-|
   "Feeling paranoid..."




G|----------------------------|
D|----------------------------|
A|----------------------------|
E|-0--3--5--0-3--6--5--3--0-1-|
   "...or false friend..."




G|----------------------------|
D|----------------------------|
A|----------------------------|
E|-0--3--5--0-3--6--5--0--6-5-|
   "Anxiety's attacking me..."




G|-----------------|
D|-----------------|
A|-----------------|
E|-0--3--5--0-1--0-|
   "...air is getting thin."



G|----------------------------|
D|----------------------------|
A|----------------------------|
E|-0--3--5--0-3--6--5--0--6-5-|
   "I'm in trouble..."



G|----------------------------|
D|----------------------------|
A|----------------------------|
E|-0--3--5--0-3--6--5--3--0-1-|
   "...haven't got to yet..."



G|----------------------------|
D|----------------------------|
A|----------------------------|
E|-0--3--5--0-3--6--5--0--6-5-|
   "I'm chomping at the bit..."



G|-------------------------|
D|-------------------------|
A|-----------------7--5-7--|
E|-6--5--3--1-0------------|
   "...palms are getting wet..."





At this point, repeat Riff 1 and 2





Riff 3 (repeat during first solo)
G|--------------------------------------|
D|--------------------------------------|
A|--------------------------------------|
E|-0-0-0-0-0-0-0--0-0-0-0--0-0-0-0--6-5-|


G|--------------------------------------|
D|--------------------------------------|
A|--------------------------------------|
E|-0-0-0-0-0-0-0--0-0-0-0--0-0-0-0--6-5-|

G|-----------------------------------------|
D|-----------------------------------------|
A|-----------------------------------------|
E|-3-3-3-3-3-3-3--3-3-3-5-5-5-5-5-5-6--5-1-|


G|--------------------------------------|
D|--------------------------------------|
A|--------------------------------------|
E|-0-0-0-0-0-0-0--0-0-0-0--0-0-0-0--6-5-|




Riff 4            x3

G|-----------------|
D|-----------------|
A|--8--------------|
E|------8--7--3--0-|


G|-----------------------------------|
D|-----------------------------------|
A|--8--------------------------------|
E|------8--7--3--0--------1--------2-|



Riff 5
G|-----------------------------------|
D|-----------------------------------|
A|-5-------4-------3-------2-------1-|
E|---0-2-3---0-2-3---0-2-3---0-2-3---|


G|-------------------------------|
D|-------------------------------|
A|-------0-----------------------|
E|-0-2-3---0-2-3-4-3-2-1-0-1-2-3-|

Repeat the two bars above 4 times



G|-----------------------|
D|-----------------------|
A|-11-10-9-8-------------|
E|------------4-3-2-1-0--|


Play Riff 1  "Well me it's nice..."


Riff 2 (just different text)
G|----------------------------|
D|----------------------------|
A|----------------------------|
E|-0--3--5--0-3--6--5--0--6-5-|
   "Feeling paranoid..."


G|----------------------------|
D|----------------------------|
A|----------------------------|
E|-0--3--5--0-3--6--5--3--0-1-|
   "...or false friend..."


G|----------------------------|
D|----------------------------|
A|----------------------------|
E|-0--3--5--0-3--6--5--0--6-5-|
   "Anxiety's attacking me..."


G|-----------------|
D|-----------------|
A|-----------------|
E|-0--3--5--0-1--0-|
   "...air is getting thin."


G|----------------------------|
D|----------------------------|
A|----------------------------|
E|-0--3--5--0-3--6--5--0--6-5-|
   "Feeling claustrophobic..."


G|----------------------------|
D|----------------------------|
A|----------------------------|
E|-0--3--5--0-3--6--5--3--0-1-|
   "...walls are caving in..."


G|----------------------------|
D|----------------------------|
A|----------------------------|
E|-0--3--5--0-3--6--5--0--6-5-|
   "Bloodstains on my hands..."


G|-------------------|
D|-------------------|
A|-----------------7-|
E|-6--5--3--1-0------|
   "...don't know where I've been."




G|---------------------------------|
D|---------------------------------|
A|---------------------------------|
E|-0000000000000000000000000000----|
   "Once you committed me..."       


I just make it simple here and play it with the drums




Ending

G|---------------------------------------|
D|---------------------------------------|
A|-----------------7--5-7----------------|
E|-6--5--3--1-0------------------6-5--0--|
                      SWEATING BULLEEEEETS!


            
            
Suggest correction
Creating personal tab
Creating personal tab
You can edit any tab online and save it as your Personal.

You can edit, replace or remove any tab part or add personal notes – all changes will be seen only by you.

Personal tabs can be accessed anytime from any device, even offline.
Learn more »
Give kudos to tab author, rate the tab!
1 2 3 4 5
comments
print report bad tab
guest
You may want to rate the tab now too:
select rating
Wanna post a correction for this tab? Suggest correction