Oops, an error
Loading. Please wait.
We have an official Symphony Of Destruction tab made by UG professional guitarists. Check out the tab »
×
8,277 views 6 this week
3 commentsread comments
1 2 3 4 5
x 5
add to favorites
×
Save as Personal and add changes to this tab that will be seen only by you. Learn more ›
×
You can save this tab as Personal to edit and correct it or add notes. All changes will be seen only by you. Learn more »
launch autoscroll
font size
0
reset
guitar tuner
backing track
0:00
0:00
edit
Autoscroll
slow
fast
+/-
esc
set tempo
stop
Author
Intro 
|------------------------------------------------------------------|
|------------------------------------------------------------------|
|------------------------------------------------------------------|
|--1-3-1-1-0-0----1-0-0----1-3-1-1-0-0-0-0-0-0-0-0-0-0-0-0-0-0-0-0-|

Versr riff
|-------------------------------------------------------|
|-------------------------------------------------------|
|-------------------------------------------------------|
|1-0-0--1-0-0---1-3-1-1-0-0-0-0-0-0-0-0-0-0-0-0-0-0-0-0-|

pre chorus
|-----------------------------------|                                      
|-----------------------------------|                                      
|-----------------------------------|                                       
|-0-0-5-0-4-0-3-000-5-0-4-0-3-000---|                                       

fill 1
|-------------------------|
|-------------------------|
|-5-----------------------|
|--6-5-4-3-2-1-0----------|

Chorus

|-----------------1------------------------------------|
|-------------------2----------------5-4---------------|
|---------------------2------------5-----5-------------|
|-7----6-----5~~~----------3---2---------------7~~-----|

|-----------------1------------------------------------| PLay only to
|-------------------2----------------------------------|to this point
|---------------------2------------5-------------------|on first chorus
|-7----6-----5~~~----------3---2-------x-x-x-x---------|

|-----------------1------------------------------------|
|-------------------2----------------5-4---------------|
|---------------------2------------5-----5-------------|
|-7----6-----5~~~----------3---2---------------7~~-----|

|-----------------1------------------------------------|
|-------------------2----------------5-4---------------|
|---------------------2------------5-----5-------------|
|-7----6-----5~~~----------3---2---------------7~~-----|

|-----------------------------------|
|----------------5-4----------------|
|---------------5-----5-------------|
|3---2----------------------7~~-----|

then for solo play Pre Chorus.

Everything is here for the rest of the song. Have fun.

            
            
Suggest correction
Creating personal tab
Creating personal tab
You can edit any tab online and save it as your Personal.

You can edit, replace or remove any tab part or add personal notes – all changes will be seen only by you.

Personal tabs can be accessed anytime from any device, even offline.
Learn more »
comments
print report bad tab
3 comments total.
+1 reply
Haunted_Shell 10 Nov 24, 2008 11:20 PM

This tab is just bad. The bass doesn't play this at all. I know how to play it since I played it in an old band but I completely had to relearn from ear because all these tabs on this website are horribly off

+1 reply
CliffIsAngry 20 Dec 10, 2009 11:49 PM

agree. this tab is horrible wrong. there's a guitar pro version that has it right. the bass does NOT play anything similar to the guitars.

+1 reply
J8K8 838 Aug 23, 2014 06:14 AM

Clearly wrong.

guest
You may want to rate the tab now too:
select rating
Wanna post a correction for this tab? Suggest correction