Oops, an error
Loading. Please wait.

Take No Prisoners bass

version 1
version 1
19,465 views 24 this week
4 commentsread comments
1 2 3 4 5
x 8
add to favorites
×
Save as Personal and add changes to this tab that will be seen only by you. Learn more ›
×
You can save this tab as Personal to edit and correct it or add notes. All changes will be seen only by you. Learn more »
launch autoscroll
font size
0
reset
guitar tuner
backing track
0:00
0:00
edit
Autoscroll
slow
fast
+/-
esc
set tempo
stop
Author
Difficulty
Listen for rhythms

Intro - enter with drums
G[----------------------------]
D[----------------------------]
A[----------------------------]
E[-2-0-2-3-2-0-2-5--3-2-0-3-2-]

Mimic of chromatic riff, also enter with drums
G[---------------------------------]
D[---------------------------------]
A[---------------------------------]
E[-2-1-0-3-2-0-2-1-0-3-2-0-3-2-1-0-]

Repeat as needed
G[--------------------------]
D[--------------------------]
A[----------------0-------3-]
E[-2-2-2-3-3-3-2-----2-2----]

Repeat as needed
(Got one chance...Infiltrate them!)
G[------------------]
D[------------------]
A[----------0-----3-]
E[-2--3--2-----2----]

(And their people)
G[------------------------]
D[------------------------]
A[--------------2-------5-]
E[-4-4-4-5-5-4-----4-4----]


G[----------------------------------------------]
D[----------------------------------------------]
A[----------------------------------------------]
E[-14--12-13--11-12--10-11--9-10-8-9-7--9--6-7--]

G[----------------------------------------------------]
D[----------------------------------------------------]
A[----------------------------------------------------]
E[5-6--4-5--3-4-2-3-1--2--0-2-0-2--0-2-0-3-2-0-3-2----]

1st ending
G-----------------------------]
D-----------------------------]
A-----------------------------]
E-2--0-2-0-2--0-2-0-3-2-0-3-2-]

 2nd ending
G[-----------------------------]
D[-----------------------------]
A[-----------------------------]
E[-2--0-2-0-2--0-2-0-2-0-0-0-0-]

  Bass solo
G[-----------11------------11------------11------------11-]
D[-9--11---------9--11---------9--11---------9--11--------]
A[--------9-------------9-------------9-------------9-----]
E[--------------------------------------------------------]

(Go to war, give em hell)
G[----------------------------------------------------------]
D[----------------------------------------------------------]
A[------------------------------2-3-2-----------2-3-2-------]
E[-2-0-2-0-2-0-2-0-3-0-2-0--2-5-------5-2-0-2-5-------5-2-0-]

G[-------------------------------------------------------]
D[-------------------------------------------------------]
A[-----------------------------0-1-0-----------0-1-0-----]
E[-2-0-2-0-2-0-2-0-3-0-2-0-0-3-------3-0-0-0-3-------3-0-]

 (bereft of heart and soul) 
G[---------------------------------------------------]
D[-4-3-2---4----4-3-2--------------------------------]
A[-------4-------------4-2----4-3-2-0------1-0-------]
E[------------------------------------3--------3-2-1-]

 (by the way son)
G[------------------------------------------------]
D[------------------4-2---2-----------------------]
A[----------------------4---4-0-3-3-3-2-0---2-0---]
E[-3-2-3-2-3-0-2-0------------------------2-----0-]

 (he once had to be)
G[------------------------------]
D[-4--5--4----------------------]
A[----------4-5-----------------]
E[--------------5-4-5--4--2-4-5-]

G[----------------------------------------------------]
D[----------------------4-2---------------------2-3-4-]
A[--------------------------4-3-2-0-2-2-2-3-4-4-------]
E[-3-2-3-0-2-0-3-0-2-0--------------------------------]

G[-----------------------------------------------------]
D[-----------------------4-2---2-----------------------]
A[---------------------------4---4-0-3-3-3-2-0---2-0---]
E[-3-2-3-0-2-0-3-0-2-0-------------------------2-----0-]

 (don't ask what you...)
G[------------------]
D[------------------]
A[----------0-----3-]
E[-2--3--2-----2----]

 (take no prisoners)
G[------------------------------------------------------]
D[------------------------------------------------------]
A[----0--3--2--0--2--3-------0--3--2--0-----------------]
E[-2----------------------2--------------3--2-2-0-2-2-0-]

G[---------------------|-----------]
D[---------------------|---------4-]
A[---------------------|-----------]
E[-2--2--0-2--2--0-----|-2--2-0----]

            
            
Suggest correction
Creating personal tab
Creating personal tab
You can edit any tab online and save it as your Personal.

You can edit, replace or remove any tab part or add personal notes – all changes will be seen only by you.

Personal tabs can be accessed anytime from any device, even offline.
Learn more »
comments
print report bad tab
4 comments total. Showing first comments.
+2 reply
Suckthebeef 123 Dec 10, 2008 04:52 AM

This is a b-e-a-utiful tab to read, 5*!!

+1 reply
Black Ox 170 Apr 26, 2010 02:15 PM

the bass solo is tapped. I'm not sure how to play it yet, but I'll work on figuring it out.

+1 reply
brimtastic 10 Jun 22, 2010 07:35 AM

Great tab. Using the Amazing Slow Downer I got this for the bass solo.

G[-11--------------11--------------]
D[----9-11-11---------9-11-11------]
A[------------9-11------------9-11-] x 2 or however many
E[---------------------------------]


Or that can easily be tapped, of course.

G[-11-4-6----------11-4-6----------]
D[---------11-4-6----------11-4-6--]
A[---------------------------------]
E[---------------------------------]

guest
You may want to rate the tab now too:
select rating
Wanna post a correction for this tab? Suggest correction