Oops, an error
Loading. Please wait.

The Hardest Part Of Letting Go Sealed With A Kiss bass

version 1
version 1

Whole song

Interactive

1,398 views 1 this week
1 commentread comment
1 2 3 4 5
3 more votes to show rating
add to favorites
×
Save as Personal and add changes to this tab that will be seen only by you. Learn more ›
×
You can save this tab as Personal to edit and correct it or add notes. All changes will be seen only by you. Learn more »
launch autoscroll
font size
0
reset
guitar tuner
edit
Autoscroll
slow
fast
+/-
esc
set tempo
stop
Megadeth
The Hardest Part of Letting Go...Sealed With a Kiss
Endgame

Riff 1 *(intro/Outro) LIsten for the timing I never recorded it so you got to find that
yourself

1|------------------------------------------------|
2|------------------------------------------------|
3|--1~~~~~~~~~0------------1~~~~~~~~~5~~~~~~~~~3--|
4|---------------1~~~~~~~~~-----------------------|

Riff 2 1:48ish

1|------------------------------------------------|
2|------------------------------------------------|
3|--1-0-----1-0----------1-0--------1-0~----------|
4|------5~~-----5~-3-2~~-----5~-3-2------3--------|

Riff 3

1|------------------------------------------------|
2|------------------------------------------------|
3|------------------13\---------------------------|
4|-12\-000-000-12-0-----000-000-000-000-----------|

1|------------------------------------------------|
2|------------------------------------------------|
3|------------------11\---------------------------|
4|-12\-000-000-12-0-----000-000-000-000-----------|


That is pretty much the whole song I might be missing some little things but i did this
30 minutes so I think its pretty good for the time

            
            
Suggest correction
Creating personal tab
Creating personal tab
You can edit any tab online and save it as your Personal.

You can edit, replace or remove any tab part or add personal notes – all changes will be seen only by you.

Personal tabs can be accessed anytime from any device, even offline.
Learn more »
Give kudos to tab author, rate the tab!
1 2 3 4 5
comments
print report bad tab
1 comment total.
0 reply
Kaladere 31 Sep 11, 2009 03:28 PM

Also if you want to improv the intro the basic notes are this so you can have fun with that

1|----------------------|
2|----------------------|
3|-5-----4-----3-----2--|
4|----------------------|

guest
You may want to rate the tab now too:
select rating
Wanna post a correction for this tab? Suggest correction