Oops, an error
Loading. Please wait.

The Killing Road bass

version 2
version 2

Whole song

475 views 1 this week
no commentswrite comment
1 2 3 4 5
2 more votes to show rating
add to favorites
×
Save as Personal and add changes to this tab that will be seen only by you. Learn more ›
×
You can save this tab as Personal to edit and correct it or add notes. All changes will be seen only by you. Learn more »
launch autoscroll
font size
0
reset
guitar tuner
backing track
0:00
0:00
edit
Autoscroll
slow
fast
+/-
esc
set tempo
stop
Tablature Legend
----------------
L - tied note

                                                                        

                      
F#||-------------------|-------------------|-------------------|
C#||-------------------|-------------------|-------------------|
G#||-------------------|-------------------|-------------------|
D#||-------------------|-------------------|-------------------|


-------------------|--------------------------|---------------------------|
-------------------|--------2--------3--------|--2--------3-----0----L----|
-------------------|--------------------------|---------------------------|
-------------------|--0--0-----0--0-----0--0--|-----0--0-----0------------|

            
--------------------------|---------------------------|---------------------|
--------2--------3--------|--2--------3-----0----L----|---------------------|
--------------------------|---------------------------|---------------------|
--0--0-----0--0-----0--0--|-----0--0-----0------------|--0--0---------------|

  
-------------------|-------------------|--------------------------|
-------------------|-------------------|--------------------------|
-------------------|-------------------|--3--3--3--3--2--2--2--2--|
-------------------|-------------------|--------------------------|

               
---------------------|-------------------|-------------------|
---------------------|-------------------|-------------------|
---------------------|-------------------|-------------------|
--0--0---------------|-------------------|-------------------|

  
--------------------------|--------------------------|
--------------------------|--------------------------|
--3--3--3--3--2--2--2--2--|--------------------------|
--------------------------|--0--0--0--0--0--1--0--0--|

  
--------------------------|--------------------------|
--------0-----------------|--------------------------|
-----------2--2-----------|--------------------------|
--0--0-----------3--2--1--|--1--1--1--1--1--1--1--1--|

  
--------------------------|--------------------------|
--------------------------|--------------------------|
--3--3--3--3--2--2--2--2--|--------------------------|
--------------------------|--0--0--0--0--0--1--0--0--|

  
--------------------------|--------------------------|
--------0-----------------|--------------------------|
-----------2--2-----------|--------------------------|
--0--0-----------3--2--1--|--1--1--1--1--1--1--1--1--|

  
--------------------------|--------------------------|
--------------------------|--------------------------|
--3--3--3--3--2--2--2--2--|--------------------------|
--------------------------|--0--0--0--0--0--1--0--0--|

 
--------------------------|--------------------------|
--------0-----------------|--------------------------|
-----------2--2-----------|--------------------------|
--0--0-----------3--2--1--|--1--1--1--1--1--1--1--1--|

  
--------------------------|--------------------------|
--------------------------|--------------------------|
--3--3--3--3--2--2--2--2--|--------------------------|
--------------------------|--0--0--0--0--0--1--0--0--|

  
--------------------------|--------------------------|
--------0-----------------|--------------------------|
-----------2--2-----------|--------------------------|
--0--0-----------3--2--1--|--1--1--1--1--1--1--1--1--|

  
--------------------------|--------------------------|
--------------------------|--------------------------|
--3--3--3--3--2--2--2--2--|-----------------2--2--2--|
--------------------------|--0--0--0--0--0-----------|

  
--------------------------|--------------------------|
--------------------------|--------------------------|
--1--1--1-----------------|-----------------2--2--2--|
-----------3--3--3--1--0--|--0--0--0--0--0-----------|

 
--------------------------|--------------------------|
--------------------------|--------------------------|
--1--1--1-----------------|-----------------2--2--2--|
-----------3--3--3--1--0--|--0--0--0--0--0-----------|

  
--------------------------|--------------------------|
--------------------------|--------------------------|
--1--1--1-----------------|-----------------2--2--2--|
-----------3--3--3--1--0--|--0--0--0--0--0-----------|

  
--------------------------|--------------------------|
--------------------------|--------------------------|
--1--1--1-----------------|-----------------2--2--2--|
-----------3--3--3--1--0--|--0--0--0--0--0-----------|

  
--------------------------|--------------------------|
--------------------------|--------------------------|
--1--1--1-----------------|-----------------2--2--2--|
-----------3--3--3--1--0--|--0--0--0--0--0-----------|

   
--------------------------|--------------------------|
--------------------------|--------------------------|
--1--1--1-----------------|-----------------2--2--2--|
-----------3--3--3--1--0--|--0--0--0--0--0-----------|

  
--------------------------|--------------------------|
--------------------------|--------------------------|
--1--1--1-----------------|-----------------2--2--2--|
-----------3--3--3--1--0--|--0--0--0--0--0-----------|

   
--------------------------|--------------------------|
--------------------------|--------------------------|
--1--1--1-----------------|--------------------------|
-----------3--3--3--1--0--|--0--0--0--0--0--1--0--0--|

  
--------------------------|--------------------------|
--------0-----------------|--------------------------|
-----------2--2-----------|--------------------------|
--0--0-----------3--2--1--|--1--1--1--1--1--1--1--1--|

  
--------------------------|--------------------------|
--------------------------|--------------------------|
--3--3--3--3--2--2--2--2--|--------------------------|
--------------------------|--0--0--0--0--0--1--0--0--|

   
--------------------------|--------------------------|
--------0-----------------|--------------------------|
-----------2--2-----------|--------------------------|
--0--0-----------3--2--1--|--1--1--1--1--1--1--1--1--|

   
--------------------------|--------------------------|
--------------------------|--------------------------|
--3--3--3--3--2--2--2--2--|--------------------------|
--------------------------|--0--0--0--0--0--1--0--0--|

   
--------------------------|--------------------------|
--------0-----------------|--------------------------|
-----------2--2-----------|--------------------------|
--0--0-----------3--2--1--|--1--1--1--1--1--1--1--1--|

  
--------------------------|--------------------------|
--------------------------|--------------------------|
--3--3--3--3--2--2--2--2--|--------------------------|
--------------------------|--0--0--0--0--0--1--0--0--|

  
--------------------------|--------------------------|
--------0-----------------|--------------------------|
-----------2--2-----------|--------------------------|
--0--0-----------3--2--1--|--1--1--1--1--1--1--1--1--|

  
--------------------------|--------------------------|
--------------------------|--------------------------|
--3--3--3--3--2--2--2--2--|-----------------2--2--2--|
--------------------------|--0--0--0--0--0-----------|

  
--------------------------|--------------------------|
--------------------------|--------------------------|
--1--1--1-----------------|-----------------2--2--2--|
-----------3--3--3--1--0--|--0--0--0--0--0-----------|

  
--------------------------|--------------------------|
--------------------------|--------------------------|
--1--1--1-----------------|-----------------2--2--2--|
-----------3--3--3--1--0--|--0--0--0--0--0-----------|

  
--------------------------|--------------------------|
--------------------------|--------------------------|
--1--1--1-----------------|-----------------2--2--2--|
-----------3--3--3--1--0--|--0--0--0--0--0-----------|

  
--------------------------|--------------------------|
--------------------------|--------------------------|
--1--1--1-----------------|-----------------2--2--2--|
-----------3--3--3--1--0--|--0--0--0--0--0-----------|

  
--------------------------|--------------------------|
--------------------------|--------------------------|
--1--1--1-----------------|-----------------2--2--2--|
-----------3--3--3--1--0--|--0--0--0--0--0-----------|

  
--------------------------|--------------------------|
--------------------------|--------------------------|
--1--1--1-----------------|-----------------2--2--2--|
-----------3--3--3--1--0--|--0--0--0--0--0-----------|

  
--------------------------|--------------------------|
--------------------------|--------------------------|
--1--1--1-----------------|-----------------2--2--2--|
-----------3--3--3--1--0--|--0--0--0--0--0-----------|

                
--------------------------|-----------------------|-------------------|
--------------------------|-----------------------|-------------------|
--1--1--1-----------------|-----------------------|-------------------|
-----------3--3--3--1--0--|--0----0---------------|-------------------|

            
-------------------|--------------------------|---------------------|
-------------------|--------------------------|---------------------|
-------------------|--3--3--3--3--2--2--2--2--|---------------------|
-------------------|--------------------------|--0--0---------------|

 
-------------------|--------------------------|--------------------------|
-------------------|-----------0--2--------0--|--------------------------|
-------------------|--------------------3-----|-----2--3-----2--2--0-----|
-------------------|--0--1--0--------0--------|--0--------0-----------2--|

 
--------------------------|--------------------------|
--------------------------|--------------------------|
--------------------------|--------------------------|
--2--2--2--2--2--2--2--2--|--2--2--2--2--3--3--0--0--|

  
--------------------------|--------------------------|
--------------------------|--------------------------|
--------------------------|--------------------------|
--0--0--0--0--0--0--0--3--|--3--0--0--3--3--0--0--2--|

 
--------------------------|--------------------------|
--------------------------|--------------------------|
--------------------------|--------------------------|
--2--2--2--2--2--2--2--2--|--2--2--2--2--3--3--0--0--|

  
--------------------------|--------------------------|
--------------------------|--------------------------|
--------------------------|--------------------------|
--0--0--0--0--0--0--0--3--|--3--0--0--3--3--0--0--2--|
  
--------------------------|--------------------------|
--------------------------|--------------------------|
--------------------------|--------------------------|
--2--2--2--2--2--2--2--2--|--2--2--2--2--3--3--0--0--|

  
--------------------------|--------------------------|
--------------------------|--------------------------|
--------------------------|--------------------------|
--0--0--0--0--0--0--0--3--|--3--0--0--3--3--0--0--2--|

  
--------------------------|--------------------------|
--------------------------|--------------------------|
--------------------------|--------------------------|
--2--2--2--2--2--2--2--2--|--2--2--2--2--3--3--0--0--|

  
--------------------------|--------------------------|
--------------------------|--------------------------|
--------------------------|--------------------------|
--0--0--0--0--0--0--0--3--|--3--0--0--3--3--0--0--2--|

  
--------------------------|--------------------------|
--------------------------|--------------------------|
--------------------------|--------------------------|
--2--2--2--2--2--2--2--2--|--2--2--2--2--3--3--0--0--|

  
--------------------------|--------------------------|-----------------------|
--------------------------|--------------------------|-----------------------|
--------------------------|--------------------------|-----------------------|
--0--0--0--0--0--0--0--3--|--3--0--0--3--3--0--0--2--|--2--------L-----2--2--|

  
--------------------------|--------------------------|
--------------------------|--------------------------|
--------------------------|--------------------------|
-----2-----2-----3-----0--|--0--0--0--0--0--1--0--0--|

 
--------------------------|--------------------------|
--------0-----------------|--------------------------|
-----------2--2-----------|--------------------------|
--0--0-----------3--2--1--|--1--1--1--1--1--1--1--1--|

 
--------------------------|--------------------------|
--------------------------|--------------------------|
--3--3--3--3--2--2--2--2--|--------------------------|
--------------------------|--0--0--0--0--0--1--0--0--|

 
--------------------------|--------------------------|
--------0-----------------|--------------------------|
-----------2--2-----------|--------------------------|
--0--0-----------3--2--1--|--1--1--1--1--1--1--1--1--|

 
--------------------------|--------------------------|
--------------------------|--------------------------|
--3--3--3--3--2--2--2--2--|-----------------2--2--2--|
--------------------------|--0--0--0--0--0-----------|

  
--------------------------|--------------------------|
--------------------------|--------------------------|
--1--1--1-----------------|-----------------2--2--2--|
-----------3--3--3--1--0--|--0--0--0--0--0-----------|

  
--------------------------|--------------------------|
--------------------------|--------------------------|
--1--1--1-----------------|-----------------2--2--2--|
-----------3--3--3--1--0--|--0--0--0--0--0-----------|

 
--------------------------|--------------------------|
--------------------------|--------------------------|
--1--1--1-----------------|-----------------2--2--2--|
-----------3--3--3--1--0--|--0--0--0--0--0-----------|
 
--------------------------|--------------------------|
--------------------------|--------------------------|
--1--1--1-----------------|-----------------2--2--2--|
-----------3--3--3--1--0--|--0--0--0--0--0-----------|

 
--------------------------|--------------------------|
--------------------------|--------------------------|
--1--1--1-----------------|-----------------2--2--2--|
-----------3--3--3--1--0--|--0--0--0--0--0-----------|

  
--------------------------|--------------------------|
--------------------------|--------------------------|
--1--1--1-----------------|-----------------2--2--2--|
-----------3--3--3--1--0--|--0--0--0--0--0-----------|
  
--------------------------|--------------------------|
--------------------------|--------------------------|
--1--1--1-----------------|-----------------2--2--2--|
-----------3--3--3--1--0--|--0--0--0--0--0-----------|


--------------------------|--------------------------|
--------------------------|--------------------------|
--1--1--1-----------------|-----------------2--2--2--|
-----------3--3--3--1--0--|--0--0--0--0--0-----------|

 
--------------------------|--------------------------|
--------------------------|--------------------------|
--1--1--1-----------------|-----------------2--2--2--|
-----------3--3--3--1--0--|--0--0--0--0--0-----------|

 
--------------------------|--------------------------|
--------------------------|--------------------------|
--1--1--1-----------------|-----------------2--2--2--|
-----------3--3--3--1--0--|--0--0--0--0--0-----------|

 
--------------------------|--------------------------|
--------------------------|--------------------------|
--1--1--1-----------------|-----------------2--2--2--|
-----------3--3--3--1--0--|--0--0--0--0--0-----------|

 
--------------------------|--------------------------|
--------------------------|--------------------------|
--1--1--1-----------------|-----------------2--2--2--|
-----------3--3--3--1--0--|--0--0--0--0--0-----------|

 
--------------------------|--------------------------|
--------------------------|--------------------------|
--1--1--1-----------------|-----------------2--2--2--|
-----------3--3--3--1--0--|--0--0--0--0--0-----------|

  
--------------------------|--------------------------|
--------------------------|--------------------------|
--1--1--1-----------------|-----------------2--2--2--|
-----------3--3--3--1--0--|--0--0--0--0--0-----------|

 
--------------------------|--------------------------|
--------------------------|--------------------------|
--1--1--1-----------------|-----------------2--2--2--|
-----------3--3--3--1--0--|--0--0--0--0--0-----------|


--------------------------||
--------------------------||
--1--1--1-----------------||
-----------3--3--3--1--0--||

            
            
Suggest correction
Creating personal tab
Creating personal tab
You can edit any tab online and save it as your Personal.

You can edit, replace or remove any tab part or add personal notes – all changes will be seen only by you.

Personal tabs can be accessed anytime from any device, even offline.
Learn more »
Give kudos to tab author, rate the tab!
1 2 3 4 5
comments
print report bad tab
guest
You may want to rate the tab now too:
select rating
Wanna post a correction for this tab? Suggest correction