Oops, an error
Loading. Please wait.

The Right To Go Insane tab

version 1
version 1

Whole song

Interactive

13,729 views 1 this week
no commentswrite comment
1 2 3 4 5
x 5
add to favorites
×
Save as Personal and add changes to this tab that will be seen only by you. Learn more ›
×
You can save this tab as Personal to edit and correct it or add notes. All changes will be seen only by you. Learn more »
launch autoscroll
font size
0
reset
how to read this tab
guitar tuner
backing track
0:00
0:00
edit
Autoscroll
slow
fast
+/-
esc
set tempo
stop
Difficulty
intermediate
Song title: The Right to Go Insane
Artist: Megadeth
Album: Endgame
Tabbed by: Emanem Sep. 8, 2009
Tab Keys:
h = Hammer on
p = Pull off
b = Bend to note
v = vibrato
/ = Slide up
\ = Slide down
. = Right hand Palm mute
x = Left hand not pressed mute

Note: This my first post tab on here
Although, I have figured many of the song
i learned hot play by ear myself, so i'm not an amature
check it out for yourself.. hope you like it, then
tell me what u think about it. 

Intro: (0:00-0:10) 
---------

    Bass only at first
G |-----------|-----------|-----------|
D |-----------|-----------|-----------|
A |-2--2-1-0--|-2--2-1-0--|--2-1-0----|  x4
E |--0------0-|--0------0-|--------0--|


   Both Guitars Come-in here
e |----------|------------------|---------------|
B |----------|------------------|---------------|
G |-4-/------|-2-/-4-----2h4----|-/5------------|
D |-4-/-5--7-|-2-/-4--2h4---2h4-|-/5-4-3-2------|
A |-2-/-3--5-|-0-/-2------------|-/3-------5-2--|
E |----------|------------------|---------------|

e |-------------|------------------|------------|
B |-------------|------------------|------------|
G |-2/-4-/------|-2-/-4-----2h4----|-/5---------|
D |-2/-4-/-5--7-|-2-/-4--2h4---2h4-|-/5--7-7--5-|
A |-0/-2-/-3--5-|-0-/-2------------|-/3--5-5--3-|
E |-------------|------------------|------------|
                                          . .  .  

Verse:- (0:30-0:51)
------

First Guitar:

e |-----------|-----------|-------------|
B |-----------|-----------|-------------|
G |-----------|-----------|-------------|
D |-----------|-----------|-------------|
A |-2--2-1-0--|-2--2-1-0--|--2-1-0------|  x8
E |--0------0-|--0------0-|--------0----| 
   .  . . .    .  . . .     . .

  "I barely get to the..."

Second Guitar:

e |-------------|-------------|-----------|
B |-------------|-------------|-----------|
G |-------------|-------------|-----------|
D |-------------|-------------|-----------| x8
A |-------------|-------------|-----------|
E |-7-0-7-6-5-0-|-7-0-7-6-5-0-|-7-6-5-0---|
    .   . . .     .   . . .     . . .

Pre-Chorus:- (00:52-01:03)
----------

   Both Guitars-A
e |-------------------|--------------------|
B |-------------------|--------------------|
G |--------------7----|----------------9---|
D |-9-9-9----7h9------|-10-10-10---7h9-----| 
A |-9-9-9-------------|-10-10-10-----------|
E |-7-7-7-------------|-8--8--8------------|
    . . .               .  .  .

e |-------------|-------------|-----------|
B |-------------|-------------|-----------|
G |-------------|-------------|-----------|
D |-------------|-------------|-----------| ----> back to part A
A |-------------|-------------|-----------|
E |-7-0-7-6-5-0-|-7-0-7-6-5-0-|-7-6-5-0---|
    .   . . .     .   . . .     . . .         

   First Guitar Ending Part-B 
e |-------------|-------------|-----------|
B |-------------|-------------|-----------|
G |-------------|-------------|-----------|
D |-------------|-------------|-----------| <---- Second time around
A |-------------|-------------|-----------|
E |-7-0-7-6-5-0-|-7-0-7-6-5-0-|-7-6-5-0---|
    .   . . .  
   
  "my mind is on the break!"

   2nd Guitar octive-higher harmony
e |-------------|-------------|-----------|
B |-------------|-------------|-----------|
G |-------------|-------------|-----------|
D |-9-9-8-7-----|-9--9-8-7----|--9-8-7----| 
A |--7------7---|--7-------7--|--------7--|
E |-------------|-------------|-----------|
    . . . .


Chorus: (1:04-1:24)

   1st Guitar
e |-------------|-------------|-----------|-----------|
B |-------------|-------------|-----------|-----------|
G |-------------|-------------|-----------|-----------|
D |-9-9-9-------|-7-7---------|-5-5-5-----|-4-4-------|  x4
A |-9-9-9-------|-7-7---------|-5-5-5-----|-4-4-------|
E |-7-7-7-------|-5-5---------|-3-3-3-----|-2-2-------|
    . . .         . .           . . .       . .

  "how will I face the day tomorrow?
 if I don't make it through today,
I've got nothing left to lose, but my sanity
... and the right to go insane."
  
   2nd Guitar
e |-------------|-------------|-----------|-----------|
B |--------7b8v-|--------7b8v-|------7b8v-|------7b8v-|
G |-------------|-------------|-----------|-----------|  <=== bend up 7 to 8
D |-------------|-------------|-----------|-----------|       and then shake
A |-------------|-------------|-----------|-----------|    the last note.
E |-------------|-------------|-----------|-----------| only half step bend

this one of my favourite songs of this album,
especially this part, the chorus, it reminds me
of old megadeth altered with their new energy
pretty simple, yet genuisly insane!


post-chorus:- (1:25-1:44)
-----------

e |-------------|-------------|-----------|
B |-------------|-------------|-----------|
G |-------------|-------------|-----------|
D |-2/-4--5--7--|-2/-4--5-----|--7--------| 
A |-2/-4--5--7--|-2/-4--5-----|--7--------|
E |-0/-2--3--5--|-0/-2--3-----|--5/-6-----|

e |-------------|------------------|------------|
B |-------------|------------------|------------|
G |-2/-4-/------|-2-/-4-----2h4----|-/5---------|
D |-2/-4-/-5--7-|-2-/-4--2h4---2h4-|-/5--7-7--5-|
A |-0/-2-/-3--5-|-0-/-2------------|-/3--5-5--3-|
E |-------------|------------------|------------|
                                          . .  .  

Verse x8
pre-chorus
chorus x4
post-chorus

Build-up:- (3:00-3:08)
--------

e |-------------|-----------------------|-----------------|
B |-------------|-----------------------|-----------------|
G |-4-----3-----|--2--------------------|-----------------|
D |-4-----3-----|--2--6-6-6-6-----------|-7-7-7-----------| 
A |-2-----1-----|--0--6-4-6-6-6-6-6-----|-7-7-7-7-7-7-----|
E |-------------|-----4-4-4-4-4-4-4-4-4-|-5-5-5-5-5-5-5-5-|
                        . . . . . . . 

i've tabbed most of the solos by ear
got almost all of it correct, but 
couldn't bother posting it up here

So you're guna have to figure it out
by urself, sorry, it's easy so... don't be lazy!

Solo-Rhythem:- (3:08-3:27)

e |--------------|---------------|----------------------------|
B |--------------|---------------|----------------------------|
G |--------------|---------------|----------------------------|
D |-7-7-7---9-10-|---7-7-7--9-10-|-9/10-----9/10-----9/10-----| 
A |-7-7-7---7-8--|---7-7-7--7-8--|-9/10-----9/10-----9/10-----|
E |-5-5-5----0--0|-0-5-5-5---0--0|-7/8--0-0-7/8--0-0-7/8--0-0-|
      . .    .  .  .   . .   .  .       . .      . .      . .

e |--------------|
B |--------------|
G |--------------|
D |--------------| whole thing x4
A |----10-9-8-7--|
E |-0--8/-7/6/5--|
    .  .  . . .

Second Solo-Rhythem Bridge:- (3:27-2:36)
--------------------------

e |--------------|-------------|-------------|--------------|
B |--------------|-------------|-------------|--------------|
G |--------------|-------------|-------------|--------------|
D |-7----6--5----|-------------|-------------|--------------|  x2
A |--------------|-7-----6--5--|-------5-----|-6---5---5----|
E |--0-0--0---0--|---0-0---0--0|-8-8-8--0-8-8|---8---8--0-8-|
     . .  .   .      . .   .  .    . .  .   .    .   .  .



Solo rhythem x4
Solo bridge x4


I might post the solo by itself on onther
tab some other time myself... so stay up dated with my posts,
maybe


   End Song with
e |------------------|
B |------------------|
G |------------------|
D |-7--7--5--5---7---| Sustained Strumming 
A |-7--7--5--5---7---| Almost like it's palm muted
E |-5--5--3--3---5---| and hit the last chord aggresively


Hope u enjoy it!
I've spent about 10 minutes getting the tabs right
and an hour just to post it for u guys up here (i'm a pretty slow
typer, oh well..) so please comment and rate, appreciate, 
and do something great with it! 


This song is of Megadeth's 2009 album release
Support them by buying their cd when it's out!







            
            
Suggest correction
Creating personal tab
Creating personal tab
You can edit any tab online and save it as your Personal.

You can edit, replace or remove any tab part or add personal notes – all changes will be seen only by you.

Personal tabs can be accessed anytime from any device, even offline.
Learn more »
comments
print report bad tab
guest
Wanna post a correction for this tab? Suggest correction