Oops, an error
Loading. Please wait.

The Right To Go Insane tab

version 2
version 2

Whole song

Interactive

7,239 views 1 this week
4 commentsread comments
1 2 3 4 5
x 4
add to favorites
×
Save as Personal and add changes to this tab that will be seen only by you. Learn more ›
×
You can save this tab as Personal to edit and correct it or add notes. All changes will be seen only by you. Learn more »
launch autoscroll
font size
0
reset
how to read this tab
guitar tuner
backing track
0:00
0:00
edit
Autoscroll
slow
fast
+/-
esc
set tempo
stop
Author
Difficulty
The Right To Go Insane
                                                                        Megadeth
Dave Mustaine

     W                   W                   W
E||-------------------|-------------------|-------------------|
B||-------------------|-------------------|-------------------|
G||-------------------|-------------------|-------------------|
D||-------------------|-------------------|-------------------|
A||-------------------|-------------------|-------------------|
E||-------------------|-------------------|-------------------|


  W                   W                   H        H
-------------------|-------------------|--------------------|
-------------------|-------------------|--------------------|
-------------------|-------------------|--------------------|
-------------------|--5----------------|--6--------8--------|
-------------------|--5----------------|--6--------8--------|
-------------------|--3----------------|--4--------6--------|


  S E.  E  S S E  S S E  S S    H        S S E   S E.     S S Q.     H
-----------------------------|-------------------------|---------------------|
-----------------------------|-------------------------|---------------------|
-----------------------------|-------------------------|---------------------|
--3-5---L---------3-5-L------|--6----------------------|--3-5-L------L-------|
--3-5---L--3-5-L---------3-5-|--6--------5-4-3~--------|--3-5-L------L-------|
--1-3---L--------------------|--4----------------6-4---|--1-3-L------L-------|


  H        H           S E.  E  S S E  S S E  S S    H        E  S E  S E
--------------------|-----------------------------|------------------------|
--------------------|-----------------------------|------------------------|
--------------------|-----------------------------|------------------------|
--6--------8--------|--3-5---L---------3-5-L------|--6--------8----8----8--|
--6--------8--------|--3-5---L--3-5-L---------3-5-|--6--------8----8----8--|
--4--------6--------|--1-3---L--------------------|--4--------6----6----6--|


  PM PM PM PM PM PM PM PM PM PM PM PM PM PM PM PM
  S  S  S  S  S  S  S  S  S  S  S  S  S  S  S  S
--------------------------------------------------|
--------------------------------------------------|
--------------------------------------------------|
--------------------------------------------------|
--------------------------------------------------|
--3--0--3--2--1--0--3--0--3--2--1--0--3--2--1--0--|


  PM PM PM PM PM PM PM PM PM PM PM PM PM PM PM PM
  S  S  S  S  S  S  S  S  S  S  S  S  S  S  S  S
--------------------------------------------------|
--------------------------------------------------|
--------------------------------------------------|
--------------------------------------------------|
--------------------------------------------------|
--3--0--3--2--1--0--3--0--3--2--1--0--3--2--1--0--|


  PM PM PM PM PM PM PM PM PM PM PM PM PM PM PM PM
  S  S  S  S  S  S  S  S  S  S  S  S  S  S  S  S
--------------------------------------------------|
--------------------------------------------------|
--------------------------------------------------|
--------------------------------------------------|
--------------------------------------------------|
--3--0--3--2--1--0--3--0--3--2--1--0--3--2--1--0--|


  PM PM PM PM PM PM PM PM PM PM PM PM PM PM PM PM
  S  S  S  S  S  S  S  S  S  S  S  S  S  S  S  S
--------------------------------------------------|
--------------------------------------------------|
--------------------------------------------------|
--------------------------------------------------|
--------------------------------------------------|
--3--0--3--2--1--0--3--0--3--2--1--0--3--2--1--0--|


  PM PM PM PM PM PM PM PM PM PM PM PM PM PM PM PM
  S  S  S  S  S  S  S  S  S  S  S  S  S  S  S  S
--------------------------------------------------|
--------------------------------------------------|
--------------------------------------------------|
--------------------------------------------------|
--------------------------------------------------|
--3--0--3--2--1--0--3--0--3--2--1--0--3--2--1--0--|


  PM PM PM PM PM PM PM PM PM PM PM PM PM PM PM PM
  S  S  S  S  S  S  S  S  S  S  S  S  S  S  S  S
--------------------------------------------------|
--------------------------------------------------|
--------------------------------------------------|
--------------------------------------------------|
--------------------------------------------------|
--3--0--3--2--1--0--3--0--3--2--1--0--3--2--1--0--|


  PM PM PM PM PM PM PM PM PM PM PM PM PM PM PM PM
  S  S  S  S  S  S  S  S  S  S  S  S  S  S  S  S
--------------------------------------------------|
--------------------------------------------------|
--------------------------------------------------|
--------------------------------------------------|
--------------------------------------------------|
--3--0--3--2--1--0--3--0--3--2--1--0--3--2--1--0--|


                                     PM PM PM PM        PM PM PM PM
  S S S S S S S S S S S S S S S S    S  S  S  S  S S E  S  S  S  S  S S E
----------------------------------|----------------------------------------|
----------------------------------|----------------------------------------|
----------------------------------|------------------3------------------5--|
----------------------------------|------------------3------------------5--|
----------------------------------|----------------3------------------5----|
--3-0-3-2-1-0-3-0-3-2-1-0-3-2-1-0-|--4--4--4--4--4------6--6--6--6--6------|


  PM PM PM PM PM PM PM PM PM PM PM PM PM PM PM PM
  S  S  S  S  S  S  S  S  S  S  S  S  S  S  S  S
--------------------------------------------------|
--------------------------------------------------|
--------------------------------------------------|
--------------------------------------------------|
--------------------------------------------------|
--3--0--3--2--1--0--3--0--3--2--1--0--3--2--1--0--|


  PM PM PM PM        PM PM PM PM
  S  S  S  S  S S E  S  S  S  S  S S E
----------------------------------------|
----------------------------------------|
------------------3------------------5--|
------------------3------------------5--|
----------------3------------------5----|
--4--4--4--4--4------6--6--6--6--6------|


  PM PM PM PM PM PM PM PM PM PM PM PM PM PM PM PM
  S  S  S  S  S  S  S  S  S  S  S  S  S  S  S  S
--------------------------------------------------|
--------------------------------------------------|
--------------------------------------------------|
--------------------------------------------------|
--------------------------------------------------|
--3--0--3--2--1--0--3--0--3--2--1--0--3--2--1--0--|


  S S S S S S S S S S S S S S S S    H        H           H        H
----------------------------------|--------------------|--------------------|
----------------------------------|--------------------|--------------------|
----------------------------------|--------------------|--------------------|
----------------------------------|--5--------3--------|--------------------|
----------------------------------|--5--------3--------|--6--------5--------|
--3-0-3-2-1-0-3-0-3-2-1-0-3-2-1-0-|--3--------1--------|--6--------5--------|


  H        H           H        H           H        H
--------------------|--------------------|--------------------|
--------------------|--------------------|--------------------|
--------------------|--------------------|--------------------|
--5--------3--------|--------------------|--5--------3--------|
--5--------3--------|--6--------5--------|--5--------3--------|
--3--------1--------|--6--------5--------|--3--------1--------|


  H        H           H        H           H        H
--------------------|--------------------|--------------------|
--------------------|--------------------|--------------------|
--------------------|--------------------|--------------------|
--------------------|--5--------3--------|--------------------|
--6--------5--------|--5--------3--------|--6--------5--------|
--6--------5--------|--3--------1--------|--6--------5--------|


  S S Q.     H           H        H           S S Q.     H
----------------------|--------------------|----------------------|
----------------------|--------------------|----------------------|
----------------------|--------------------|----------------------|
----------------------|--------------------|----------------------|
--3-5-L------L--------|--6--------8--------|--3-5-L------L--------|
--3-5-L------L--------|--6--------8--------|--3-5-L------L--------|


  H        H           S S Q.     H           H        H
--------------------|----------------------|--------------------|
--------------------|----------------------|--------------------|
--------------------|----------------------|--------------------|
--------------------|--3-5-L------L--------|--6--------8--------|
--6--------8--------|--3-5-L------L--------|--6--------8--------|
--6--------8--------|--1-3-L------L--------|--4--------6--------|


  S E.  E  S S E  S S E  S S    H        E  S E  S E
-----------------------------|------------------------|
-----------------------------|------------------------|
-----------------------------|------------------------|
--3-5---L---------3-5-L------|--6--------8----8----8--|
--3-5---L--3-5-L---------3-5-|--6--------8----8----8--|
--1-3---L--------------------|--4--------6----6----6--|


  PM PM PM PM PM PM PM PM PM PM PM PM PM PM PM PM
  S  S  S  S  S  S  S  S  S  S  S  S  S  S  S  S
--------------------------------------------------|
--------------------------------------------------|
--------------------------------------------------|
--------------------------------------------------|
--------------------------------------------------|
--3--0--3--2--1--0--3--0--3--2--1--0--3--2--1--0--|


  PM PM PM PM PM PM PM PM PM PM PM PM PM PM PM PM
  S  S  S  S  S  S  S  S  S  S  S  S  S  S  S  S
--------------------------------------------------|
--------------------------------------------------|
--------------------------------------------------|
--------------------------------------------------|
--------------------------------------------------|
--3--0--3--2--1--0--3--0--3--2--1--0--3--2--1--0--|


  PM PM PM PM PM PM PM PM PM PM PM PM PM PM PM PM
  S  S  S  S  S  S  S  S  S  S  S  S  S  S  S  S
--------------------------------------------------|
--------------------------------------------------|
--------------------------------------------------|
--------------------------------------------------|
--------------------------------------------------|
--3--0--3--2--1--0--3--0--3--2--1--0--3--2--1--0--|


  PM PM PM PM PM PM PM PM PM PM PM PM PM PM PM PM
  S  S  S  S  S  S  S  S  S  S  S  S  S  S  S  S
--------------------------------------------------|
--------------------------------------------------|
--------------------------------------------------|
--------------------------------------------------|
--------------------------------------------------|
--3--0--3--2--1--0--3--0--3--2--1--0--3--2--1--0--|


  PM PM PM PM PM PM PM PM PM PM PM PM PM PM PM PM
  S  S  S  S  S  S  S  S  S  S  S  S  S  S  S  S
--------------------------------------------------|
--------------------------------------------------|
--------------------------------------------------|
--------------------------------------------------|
--------------------------------------------------|
--3--0--3--2--1--0--3--0--3--2--1--0--3--2--1--0--|


  PM PM PM PM PM PM PM PM PM PM PM PM PM PM PM PM
  S  S  S  S  S  S  S  S  S  S  S  S  S  S  S  S
--------------------------------------------------|
--------------------------------------------------|
--------------------------------------------------|
--------------------------------------------------|
--------------------------------------------------|
--3--0--3--2--1--0--3--0--3--2--1--0--3--2--1--0--|


  PM PM PM PM PM PM PM PM PM PM PM PM PM PM PM PM
  S  S  S  S  S  S  S  S  S  S  S  S  S  S  S  S
--------------------------------------------------|
--------------------------------------------------|
--------------------------------------------------|
--------------------------------------------------|
--------------------------------------------------|
--3--0--3--2--1--0--3--0--3--2--1--0--3--2--1--0--|


                                     PM PM PM PM        PM PM PM PM
  S S S S S S S S S S S S S S S S    S  S  S  S  S S E  S  S  S  S  S S E
----------------------------------|----------------------------------------|
----------------------------------|----------------------------------------|
----------------------------------|------------------3------------------5--|
----------------------------------|------------------3------------------5--|
----------------------------------|----------------3------------------5----|
--3-0-3-2-1-0-3-0-3-2-1-0-3-2-1-0-|--4--4--4--4--4------6--6--6--6--6------|


  PM PM PM PM PM PM PM PM PM PM PM PM PM PM PM PM
  S  S  S  S  S  S  S  S  S  S  S  S  S  S  S  S
--------------------------------------------------|
--------------------------------------------------|
--------------------------------------------------|
--------------------------------------------------|
--------------------------------------------------|
--3--0--3--2--1--0--3--0--3--2--1--0--3--2--1--0--|


  PM PM PM PM        PM PM PM PM
  S  S  S  S  S S E  S  S  S  S  S S E
----------------------------------------|
----------------------------------------|
------------------3------------------5--|
------------------3------------------5--|
----------------3------------------5----|
--4--4--4--4--4------6--6--6--6--6------|


  PM PM PM PM PM PM PM PM PM PM PM PM PM PM PM PM
  S  S  S  S  S  S  S  S  S  S  S  S  S  S  S  S
--------------------------------------------------|
--------------------------------------------------|
--------------------------------------------------|
--------------------------------------------------|
--------------------------------------------------|
--3--0--3--2--1--0--3--0--3--2--1--0--3--2--1--0--|


  S S S S S S S S S S S S S S S S    H        H           H        H
----------------------------------|--------------------|--------------------|
----------------------------------|--------------------|--------------------|
----------------------------------|--------------------|--------------------|
----------------------------------|--5--------3--------|--------------------|
----------------------------------|--5--------3--------|--6--------5--------|
--3-0-3-2-1-0-3-0-3-2-1-0-3-2-1-0-|--3--------1--------|--6--------5--------|


  H        H           H        H           H        H
--------------------|--------------------|--------------------|
--------------------|--------------------|--------------------|
--------------------|--------------------|--------------------|
--5--------3--------|--------------------|--5--------3--------|
--5--------3--------|--6--------5--------|--5--------3--------|
--3--------1--------|--6--------5--------|--3--------1--------|


  H        H           H        H           H        H
--------------------|--------------------|--------------------|
--------------------|--------------------|--------------------|
--------------------|--------------------|--------------------|
--------------------|--5--------3--------|--------------------|
--6--------5--------|--5--------3--------|--6--------5--------|
--6--------5--------|--3--------1--------|--6--------5--------|


  S S Q.     H           H        H           S S Q.     H
----------------------|--------------------|----------------------|
----------------------|--------------------|----------------------|
----------------------|--------------------|----------------------|
----------------------|--------------------|----------------------|
--3-5-L------L--------|--6--------8--------|--3-5-L------L--------|
--3-5-L------L--------|--6--------8--------|--3-5-L------L--------|


  H        H           S S Q.     H           H        H
--------------------|----------------------|--------------------|
--------------------|----------------------|--------------------|
--------------------|----------------------|--------------------|
--------------------|--3-5-L------L--------|--6--------8--------|
--6--------8--------|--3-5-L------L--------|--6--------8--------|
--6--------8--------|--1-3-L------L--------|--4--------6--------|


  S E.  E  S S E  S S E  S S    H        E  S E  S E     H        H
-----------------------------|------------------------|--------------------|
-----------------------------|------------------------|--------------------|
-----------------------------|------------------------|--------------------|
--3-5---L---------3-5-L------|--6--------8----8----8--|--5--------4--------|
--3-5---L--3-5-L---------3-5-|--6--------8----8----8--|--5--------4--------|
--1-3---L--------------------|--4--------6----6----6--|--3--------2--------|


  H        E  S S S S S S    S S S S S S S S S S S S S S S S
--------------------------|----------------------------------|
--------------------------|----------------------------------|
--------------------------|----------------------------------|
--3--------2--------------|----------------------------------|
--3--------2--2-2-2-2-2-2-|--2-2-2-2-2-2-2-2-2-2-2-2-2-2-2-2-|
--1--------0--0-0-0-0-0-0-|--0-0-0-0-0-0-0-0-0-0-0-0-0-0-0-0-|


  S S S S S S S S S S S S S S S S    S S S S S S S S S S S S S S S S
----------------------------------|----------------------------------|
----------------------------------|----------------------------------|
----------------------------------|----------------------------------|
--------4---5-----------4---5-----|----------------------------------|
--2-----2---3-----------2---3---4-|--5-----4-5-----4-5-----4-5-----2-|
--0-0-0---0---0-0-0-0-0---0---0-2-|--3-3-3-2-3-3-3-2-3-3-3-2-3-3-3-0-|


  S S S S S S S S S S S S S S S S    S S S S S S S S S S S S S S S S
----------------------------------|----------------------------------|
----------------------------------|----------------------------------|
----------------------------------|----------------------------------|
--------4---5-----------4---5-----|----------------------------------|
--L-----2---3-----------2---3---4-|--5-----4-5-----4-5-----4-5-----2-|
--L-0-0---0---0-0-0-0-0---0---0-2-|--3-3-3-2-3-3-3-2-3-3-3-2-3-3-3-0-|


  S S S S S S S S S S S S S S S S    S S S S S S S S S S S S S S S S
----------------------------------|----------------------------------|
----------------------------------|----------------------------------|
----------------------------------|----------------------------------|
--------4---5-----------4---5-----|----------------------------------|
--L-----2---3-----------2---3---4-|--5-----4-5-----4-5-----4-5-----2-|
--L-0-0---0---0-0-0-0-0---0---0-2-|--3-3-3-2-3-3-3-2-3-3-3-2-3-3-3-0-|


  S S S S S S S S S S S S S S S S    S S S S S S S S S S S S S S S S
----------------------------------|----------------------------------|
----------------------------------|----------------------------------|
----------------------------------|----------------------------------|
--------4---5-----------4---5-----|--------------------------------9-|
--L-----2---3-----------2---3---4-|--5-----4-5-----4-5-----4-5-----7-|
--L-0-0---0---0-0-0-0-0---0---0-2-|--3-3-3-2-3-3-3-2-3-3-3-2-3-3-3---|


  S S S S S S S S S S S S S S S S    S S S S  S S S S S S  S S  S S S S
----------------------------------|-------------------------------------|
----------------------------------|-------------------------------------|
----------------------------------|-------------------------------------|
--L-----8---7---------------------|-----------------------------------9-|
--L-----6---5---9-L-----8---7-----|-----------------------------------7-|
----0-0---0---0-7-L-0-0-6-0-5-0-0-|--3-3-0-5~-L-3-0-6-L-5p-0-5~-L-3-0---|


  S S S S S S S S S S S S S S S S    S S S S  S S S S S S  S S  S S S S
----------------------------------|-------------------------------------|
----------------------------------|-------------------------------------|
----------------------------------|-------------------------------------|
--L-----8---7---------------------|-------------------------------------|
--L-----6---5---9-L-----8---7-----|-----------------------------------2-|
----0-0---0---0-7-L-0-0-6-0-5-0-0-|--3-3-0-5~-L-3-0-6-L-5p-0-5~-L-3-0-0-|


  S S S S S S S S S S S S S S S S    S S S S S S S S S S S S S S S S
----------------------------------|----------------------------------|
----------------------------------|----------------------------------|
----------------------------------|----------------------------------|
--------4---5-----------4---5-----|----------------------------------|
--L-----2---3-----------2---3---4-|--5-----4-5-----4-5-----4-5-----2-|
--L-0-0---0---0-0-0-0-0---0---0-2-|--3-3-3-2-3-3-3-2-3-3-3-2-3-3-3-0-|


  S S S S S S S S S S S S S S S S    S S S S S S S S S S S S S S S S
----------------------------------|----------------------------------|
----------------------------------|----------------------------------|
----------------------------------|----------------------------------|
--------4---5-----------4---5-----|----------------------------------|
--L-----2---3-----------2---3---4-|--5-----4-5-----4-5-----4-5-----2-|
--L-0-0---0---0-0-0-0-0---0---0-2-|--3-3-3-2-3-3-3-2-3-3-3-2-3-3-3-0-|


  S S S S S S S S S S S S S S S S    S S S S S S S S S S S S S S S S
----------------------------------|----------------------------------|
----------------------------------|----------------------------------|
----------------------------------|----------------------------------|
--------4---5-----------4---5-----|----------------------------------|
--L-----2---3-----------2---3---4-|--5-----4-5-----4-5-----4-5-----2-|
--L-0-0---0---0-0-0-0-0---0---0-2-|--3-3-3-2-3-3-3-2-3-3-3-2-3-3-3-0-|


  S S S S S S S S S S S S S S S S    S S S S S S S S S S S S S S S S
----------------------------------|----------------------------------|
----------------------------------|----------------------------------|
----------------------------------|----------------------------------|
--------4---5-----------4---5-----|--------------------------------9-|
--L-----2---3-----------2---3---4-|--5-----4-5-----4-5-----4-5-----7-|
--L-0-0---0---0-0-0-0-0---0---0-2-|--3-3-3-2-3-3-3-2-3-3-3-2-3-3-3---|


  S S S S S S S S S S S S S S S S    S S S S  S S S S S S  S S  S S S S
----------------------------------|-------------------------------------|
----------------------------------|-------------------------------------|
----------------------------------|-------------------------------------|
--L-----8---7---------------------|-----------------------------------9-|
--L-----6---5---9-L-----8---7-----|-----------------------------------7-|
----0-0---0---0-7-L-0-0-6-0-5-0-0-|--3-3-0-5~-L-3-0-6-L-5p-0-5~-L-3-0---|


  S S S S S S S S S S S S S S S S    S S S S  S S S S S S  S S  S S S S
----------------------------------|-------------------------------------|
----------------------------------|-------------------------------------|
----------------------------------|-------------------------------------|
--L-----8---7---------------------|-----------------------------------9-|
--L-----6---5---9-L-----8---7-----|-----------------------------------7-|
----0-0---0---0-7-L-0-0-6-0-5-0-0-|--3-3-0-5~-L-3-0-6-L-5p-0-5~-L-3-0---|


  S S S S S S S S S S S S S S S S    S S S S  S S S S S S  S S  S S S S
----------------------------------|-------------------------------------|
----------------------------------|-------------------------------------|
----------------------------------|-------------------------------------|
--L-----8---7---------------------|-----------------------------------9-|
--L-----6---5---9-L-----8---7-----|-----------------------------------7-|
----0-0---0---0-7-L-0-0-6-0-5-0-0-|--3-3-0-5~-L-3-0-6-L-5p-0-5~-L-3-0---|


  S S S S S S S S S S S S S S S S    S S S S  S S S S S S  S S  S S S S
----------------------------------|-------------------------------------|
----------------------------------|-------------------------------------|
----------------------------------|-------------------------------------|
--L-----8---7---------------------|-------------------------------------|
--L-----6---5---9-L-----8---7-----|---------------------------------2-2-|
----0-0---0---0-7-L-0-0-6-0-5-0-0-|--3-3-0-5~-L-3-0-6-L-5p-0-5~-L-3-0-0-|


  S S S S Q    H           W
------------------------|-------------------||
------------------------|-------------------||
------------------------|-------------------||
------------------------|-------------------||
--2-2-2-----------------|-------------------||
--0-0-0-----------------|-------------------||


Duration Legend
---------------
W - whole
H - half
Q - quarter
E - 8th
S - 16th
T - 32nd
X - 64th
. - note dotted
|-n-|  - n-tuplets


Tablature Legend
----------------
L - tied note
x - dead note
g - grace note
(n) - ghost note
> - accentuded note
NH - natural harmonic
AH - artificial harmonic
TH - tapped harmonic
SH - semi harmonic
PH - pitch harmonic
h - hammer on
p - pull off
b - bend
br - bendRelease
pb - preBend
pbr - preBendRelease
brb - bendReleaseBend
\n/ - tremolo bar dip
\n - tremolo bar dive
-/n - tremolo bar Release up
/n\ - tremolo bar inverted dip
/n - tremolo bar return
-\n - tremolo bar Release down
S - shift slide
s - legato slide
/ -  slide into from below or out of upwards
\ -  slide into from above or out of downwards
~ - vibrato
W - wide vibrato
tr - trill
TP - tremolo picking
T - tapping
S - slap
P - pop
< - fade in
^ - brush up
v - brush down

            
            
Suggest correction
Creating personal tab
Creating personal tab
You can edit any tab online and save it as your Personal.

You can edit, replace or remove any tab part or add personal notes – all changes will be seen only by you.

Personal tabs can be accessed anytime from any device, even offline.
Learn more »
comments
print report bad tab
4 comments total. Showing first comments.
0 reply
Operator (CA) 715 Sep 15, 2009 09:00 AM

well thats exaclty the guitar pro version.

0 reply
Homunculus92 31 Sep 21, 2009 08:42 AM

yes - for the people who don°t have guitar pro...

-1 reply
Firering56 10 Oct 02, 2009 10:26 AM

This tab is the most accurate one for this song yet. and i have absolutely no complaints for it either.

5 of 5 dude

guest
You may want to rate the tab now too:
select rating
Wanna post a correction for this tab? Suggest correction