Oops, an error
Loading. Please wait.
We have an official Tornado Of Souls tab made by UG professional guitarists. Check out the tab »
×
28,771 views 12 this week
2 commentsread comments
1 2 3 4 5
x 8
add to favorites
×
Save as Personal and add changes to this tab that will be seen only by you. Learn more ›
×
You can save this tab as Personal to edit and correct it or add notes. All changes will be seen only by you. Learn more »
launch autoscroll
font size
0
reset
guitar tuner
backing track
0:00
0:00
edit
Autoscroll
slow
fast
+/-
esc
set tempo
stop
Author
Difficulty
intermediate
Tornado Of Souls                                 


                                                                        MegadetH
Effelson



     Q    H.              H        E  E  E  E     Q    H.            
G|--------------------|-----------------------|--------------------|
D|--------------------|-----------------------|--------------------|
A|--------------------|-----------------------|--------------------|
E|--7-----------------|--------------7--7--7--|--L-----------------|


    H        Q    E  E     Q    H.              H        E  E  E  E   
G|----------------------|--------------------|-----------------------|
D|----------------------|--------------------|-----------------------|
A|----------------------|--------------------|-----------------------|
E|-------------------7--|--L-----------------|--------------7--7--7--|


    Q    H.              H        Q    E  E     E  E  H.            
G|--------------------|----------------------|---------------------|
D|--------------------|----------------------|---------------------|
A|--------------------|----------------------|---------------------|
E|--L-----------------|-------------------7--|--L------------------|


    H        E  E  E  E     E  E  H.              H        Q    E  E   
G|-----------------------|---------------------|----------------------|
D|-----------------------|---------------------|----------------------|
A|-----------------------|---------------------|----------------------|
E|--------------7--7--7--|--L------------------|-------------------7--|


    E  E  H.              H        Q.     E     E  E  E  E  E  E  E  E   
G|---------------------|---------------------|--------------------------|
D|---------------------|------------------7--|--L-----------5-----------|
A|---------------------|---------------------|--L--8--7--5-----6--5--3--|
E|--L------------------|---------------------|--------------------------|


    S  S  S  S S  S  S  S S  S  S  S E  E     Q    E  E  E  E  E  E   
G|-----------------------------------------|-------------------------|
D|-----------------------------------------|-------------------------|
A|--7h-8p-7s-5-5h-7p-5s-4-4h-5p-4s-3-3--2--|--L----2--2--2-----------|
E|-----------------------------------------|----------------2--2--3--|


    E  E  E  E  E  E  E  E     Q    E  E  E  E  E  E     E  E  E  E  E  E  E  E   
G|--------------------------|-------------------------|--------------------------|
D|--------------------------|-------------------------|--------------------------|
A|-----------------------2--|--L----2--2--2-----------|-----------------------2--|
E|--3--0--0--2--2--3--3-----|----------------2--2--3--|--3--0--0--2--2--3--3-----|


    Q    E  E  E  E  E  E     E  E  E  E  E  E  E  E     Q    E  E  E  E  E  E   
G|-------------------------|--------------------------|-------------------------|
D|-------------------------|--------------------------|-------------------------|
A|--L----2--2--2-----------|-----------------------2--|--L----2--2--2-----------|
E|----------------2--2--3--|--3--0--0--2--2--3--3-----|----------------2--2--3--|


    E  E  E  E  E  E  E  E     Q    E  E  E  E  E  E     E  E  E  E  E  E  E  E   
G|--------------------------|-------------------------|--------------------------|
D|--------------------------|-------------------------|--------------------------|
A|-----------------------2--|--L----2--2--2-----------|-----------------------2--|
E|--3--0--0--2--2--3--3-----|----------------2--2--3--|--3--0--0--2--2--3--3-----|


    Q    E  E  E  E  E  E     E  E  E  E  E  E  E  E     Q    E  E  E  E  E  E   
G|-------------------------|--------------------------|-------------------------|
D|-------------------------|--------------------------|-------------------------|
A|--L----2--2--2-----------|-----------------------0--|--L----0--0--0-----------|
E|----------------2--2--3--|--3--0--0--2--2--3--3-----|----------------0--0--1--|


    E  E  E  Q    E  E  E     Q    E  E  E  E  E  E     E  E  E  Q    E  E  E   
G|-------------------------|-------------------------|-------------------------|
D|-------------------------|-------------------------|-------------------------|
A|----------------3-----3--|--0----0--0--0-----------|----------------3-----3--|
E|--L--3-----5-------------|----------------0--0--1--|--L--3-----5-------------|


    Q    E  E  E  E  E  E     E  E  E  E  E  E  E  E     Q    E  E  E  E  E  E   
G|-------------------------|--------------------------|-------------------------|
D|-------------------------|--------------------------|-------------------------|
A|--2----2--2--2-----------|-----------------------2--|--L----2--2--2-----------|
E|----------------2--2--3--|--3--0--0--2--2--3--3-----|----------------2--2--3--|


    E  E  E  E  E  E  E  E     H        E  E  E  E     E  E  E  E  E  E  E  E   
G|--------------------------|-----------------------|--------------------------|
D|--------------------------|-----------------------|--------------------------|
A|-----------------------2--|--L--------------------|--------------------------|
E|--3--0--0--2--2--3--3-----|--------------2-----3--|--L--0--2--3--3--2--0--0--|


    H        E  E  E  E     H        E  E  E  E     H        E  E  E  E   
G|-----------------------|-----------------------|-----------------------|
D|-----------------------|-----------------------|-----------------------|
A|-----------------------|--------------5-----5--|--2--------------------|
E|--L-----------3-----3--|--2--------------------|--------------2-----3--|


    E  E  E  E  E  E  E  E     H        E  E  E  E     H        E  E  E  E   
G|--------------------------|-----------------------|-----------------------|
D|--------------------------|-----------------------|-----------------------|
A|--------------------------|-----------------------|--------------5-----5--|
E|--L--0--2--3--3--2--0--0--|--L-----------3-----3--|--2--------------------|


    H        E  E  E  E     E  E  E  E  E  E  E  E     H        E  E  E  E   
G|-----------------------|--------------------------|-----------------------|
D|-----------------------|--------------------------|-----------------------|
A|--2--------------------|--------------------------|-----------------------|
E|--------------2-----3--|--L--0--2--3--3--2--0--0--|--L-----------3-----3--|


    H        E  E  E  E     H        E  E  E  E     E  E  E  E  E  E  E  E   
G|-----------------------|-----------------------|--------------------------|
D|-----------------------|-----------------------|--------------------------|
A|--------------5-----5--|--2--------------------|--------------------------|
E|--2--------------------|--------------2-----3--|--L--0--2--3--3--2--0--0--|


    H        E  E  E  E     Q    E   E  E  Q    E     Q    E  E  E  E  E  E   
G|-----------------------|-------------------------|-------------------------|
D|-----------------------|-------------------------|-------------------------|
A|-----------------------|-------4h--5--4-------2--|--L----2--2--2-----------|
E|--L-----------3-----3--|--2--------------5-------|----------------2--2--3--|


    E  E  E  E  E  E  E  E     Q    E  E  E  E  E  E     E  E  E  E  E  E  E  E   
G|--------------------------|-------------------------|--------------------------|
D|--------------------------|-------------------------|--------------------------|
A|-----------------------2--|--L----2--2--2-----------|-----------------------2--|
E|--3--0--0--2--2--3--3-----|----------------2--2--3--|--3--0--0--2--2--3--3-----|


    Q    E  E  E  E  E  E     E  E  E  E  E  E  E  E     Q    E  E  E  E  E  E   
G|-------------------------|--------------------------|-------------------------|
D|-------------------------|--------------------------|-------------------------|
A|--L----2--2--2-----------|-----------------------2--|--L----2--2--2-----------|
E|----------------2--2--3--|--3--0--0--2--2--3--3-----|----------------2--2--3--|


    E  E  E  E  E  E  E  E     Q    E  E  E  E  E  E     E  E  E  E  E  E  E  E   
G|--------------------------|-------------------------|--------------------------|
D|--------------------------|-------------------------|--------------------------|
A|-----------------------2--|--L----2--2--2-----------|-----------------------2--|
E|--3--0--0--2--2--3--3-----|----------------2--2--3--|--3--0--0--2--2--3--3-----|


    Q    E  E  E  E  E  E     E  E  E  E  E  E  E  E     Q    E  E  E  E  E  E   
G|-------------------------|--------------------------|-------------------------|
D|-------------------------|--------------------------|-------------------------|
A|--L----2--2--2-----------|-----------------------0--|--L----0--0--0-----------|
E|----------------2--2--3--|--3--0--0--2--2--3--3-----|----------------0--0--1--|


    E  E  E  Q    E  E  E     Q    E  E  E  E  E  E     E  E  E  Q    E  E  E   
G|-------------------------|-------------------------|-------------------------|
D|-------------------------|-------------------------|-------------------------|
A|----------------3-----3--|--0----0--0--0-----------|----------------3-----3--|
E|--L--3-----5-------------|----------------0--0--1--|--L--3-----5-------------|


    Q    E  E  E  E  E  E     E  E  E  E  E  E  E  E     Q    E  E  E  E  E  E   
G|-------------------------|--------------------------|-------------------------|
D|-------------------------|--------------------------|-------------------------|
A|--2----2--2--2-----------|-----------------------2--|--L----2--2--2-----------|
E|----------------2--2--3--|--3--0--0--2--2--3--3-----|----------------2--2--3--|


    E  E  E  E  E  E  E  E     H        E  E  E  E     E  E  E  E  E  E  E  E   
G|--------------------------|-----------------------|--------------------------|
D|--------------------------|-----------------------|--------------------------|
A|-----------------------2--|--L--------------------|--------------------------|
E|--3--0--0--2--2--3--3-----|--------------2-----3--|--L--0--2--3--3--2--0--0--|


    H        E  E  E  E     H        E  E  E  E     H        E  E  E  E   
G|-----------------------|-----------------------|-----------------------|
D|-----------------------|-----------------------|-----------------------|
A|-----------------------|--------------5-----5--|--2--------------------|
E|--L-----------3-----3--|--2--------------------|--------------2-----3--|


    E  E  E  E  E  E  E  E     H        E  E  E  E     H        E  E  E  E   
G|--------------------------|-----------------------|-----------------------|
D|--------------------------|-----------------------|-----------------------|
A|--------------------------|-----------------------|--------------5-----5--|
E|--L--0--2--3--3--2--0--0--|--L-----------3-----3--|--2--------------------|


    H        E  E  E  E     E  E  E  E  E  E  E  E     H        E  E  E  E   
G|-----------------------|--------------------------|-----------------------|
D|-----------------------|--------------------------|-----------------------|
A|--2--------------------|--------------------------|-----------------------|
E|--------------2-----3--|--L--0--2--3--3--2--0--0--|--L-----------3-----3--|


    H        E  E  E  E     H        E  E  E  E     E  E  E  E  E  E  E  E   
G|-----------------------|-----------------------|--------------------------|
D|-----------------------|-----------------------|--------------------------|
A|--------------5-----5--|--2--------------------|--------------------------|
E|--2--------------------|--------------2-----3--|--L--0--2--3--3--2--0--0--|


    H        E  E  E  E     Q    E   E  E  Q    E     Q    Q    E  E  E  E   
G|-----------------------|-------------------------|------------------------|
D|-----------------------|-------------------------|------------------------|
A|-----------------------|-------4h--5--4-------2--|--L---------------------|
E|--L-----------3-----3--|--2--------------5-------|------------x--2-----3--|


    Q    H.              Q    Q    E  E  E  E     Q    Q    E  E  E  E   
G|--------------------|------------------------|------------------------|
D|--------------------|------------------------|------------------------|
A|--------------------|--2---------------------|------------x--5-----2--|
E|--L-----------------|------------x--2-----3--|--L---------------------|


    Q    Q    E  E  E  E     Q    H        E  E     Q    Q    E  E  E  E   
G|------------------------|----------------------|------------------------|
D|------------------------|----------------------|------------------------|
A|--L---------------------|----------------------|--2---------------------|
E|------------x--2-----3--|--L-------------------|------------x--2-----3--|


    Q    Q    E  E  E  E     Q    Q    E  E  E  E     Q    H.            
G|------------------------|------------------------|--------------------|
D|------------------------|------------------------|--------------------|
A|------------x--5-----0--|--L---------------------|--------------------|
E|--L---------------------|------------x--0-----1--|--L-----------------|


    Q    Q    E  E  E  E     Q    Q    E  E  E  E     Q    Q    E  E  E  E   
G|------------------------|------------------------|------------------------|
D|------------------------|------------------------|------------------------|
A|--0---------------------|------------x--5-----2--|--L---------------------|
E|------------x--0-----1--|--L---------------------|------------x--2-----3--|


    Q    H        E  E     Q    Q    E  E  E  E     Q    Q    E  E  E  E   
G|----------------------|------------------------|------------------------|
D|----------------------|------------------------|------------------------|
A|----------------------|--2---------------------|------------x--5-----2--|
E|--L-------------------|------------x--2-----3--|--L---------------------|


    E  E  Q    H           E  E  E  E  E  E  E  E     E  E  Q    Q    Q     
G|----------------------|--------------------------|-----------------------|
D|----------------------|--------------------------|-----------------------|
A|--L--x----------------|--------------------------|-----------------------|
E|----------------------|-----------------------7--|--L--------------------|


    Q    Q    Q    E  E     E  E  Q    Q    Q       Q    Q    Q    E  E   
G|-----------------------|-----------------------|-----------------------|
D|-----------------------|-----------------------|-----------------------|
A|-----------------------|-----------------------|-----------------------|
E|--------------------3--|--L--------------------|--------------------0--|


    E  E  Q    Q    Q       Q    Q    Q    E  E     E  E  Q    Q    E  E   
G|-----------------------|-----------------------|------------------------|
D|-----------------------|-----------------------|------------------------|
A|-----------------------|-----------------------|------------------------|
E|--L--------------------|--------------------2--|--L------------------5--|


    E  E  Q    E  E  E  E     E  E  Q    Q    Q       Q    Q    Q    E  E   
G|-------------------------|-----------------------|-----------------------|
D|-------------------------|-----------------------|-----------------------|
A|-------------------------|-----------------------|-----------------------|
E|--L-------------5-----7--|--L--------------------|--------------------3--|


    E  E  Q    Q    Q       Q    Q    E  E  E  E     E  E  Q    Q    Q     
G|-----------------------|------------------------|-----------------------|
D|-----------------------|------------------------|-----------------------|
A|-----------------------|------------------------|-----------------------|
E|--L--------------------|---------------0--0--0--|--L--------------------|


    Q    Q    Q    E  E     E  E  Q    Q    E  E     E  E  Q    E  E  E  E   
G|-----------------------|------------------------|-------------------------|
D|-----------------------|------------------------|-------------------------|
A|-----------------------|------------------------|-------------------------|
E|--------------------2--|--L------------------5--|--L-------------5--5--7--|


    E  E  E  E  E  E  E  E     E  E  E  E  E  E  E  E   
G|--------------------------|--------------------------|
D|--------------------------|--------------------------|
A|--------------------------|--------------------------|
E|--L--7--7--7--7--7--7--7--|--7--7--7--7--7--7--7--3--|


    E  E  E  E  E  E  E  E     E  E  E  E  E  E  E  E   
G|--------------------------|--------------------------|
D|--------------------------|--------------------------|
A|--------------------------|--------------------------|
E|--L--3--3--3--3--3--3--3--|--3--3--3--3--3--3--3--0--|


    E  E  E  E  E  E  E  E     E  E  E  E  E  E  E  E   
G|--------------------------|--------------------------|
D|--------------------------|--------------------------|
A|--------------------------|--------------------------|
E|--L--0--0--0--0--0--0--0--|--0--0--0--0--0--0--0--2--|


    E  E  E  E  E  E  E  E     E  E  E  E  E  E  E  E   
G|--------------------------|--------------------------|
D|--------------------------|--------------------------|
A|--------------------------|--------------------------|
E|--L--2--2--2--2--2--2--5--|--L--5--5--5--5--5--5--7--|


    E  E  E  E  E  E  E  E     E  E  E  E  E  E  E  E   
G|--------------------------|--------------------------|
D|--------------------------|--------------------------|
A|--------------------------|--------------------------|
E|--L--7--7--7--7--7--7--7--|--7--7--7--7--7--7--7--3--|


    E  E  E  E  E  E  E  E     E  E  E  E  E  E  E  E   
G|--------------------------|--------------------------|
D|--------------------------|--------------------------|
A|--------------------------|--------------------------|
E|--L--3--3--3--3--3--3--3--|--3--3--3--3--3--3--3--0--|


    E  E  E  E  E  E  E  E     E  E  E  E  E  E  E  E   
G|--------------------------|--------------------------|
D|--------------------------|--------------------------|
A|--------------------------|--------------------------|
E|--L--0--0--0--0--0--0--0--|--0--0--0--0--0--0--0--2--|


    E  E  E  E  E  E  E  E     E  E  E  E  E  E  E  E   
G|--------------------------|--------------------------|
D|--------------------------|--------------------------|
A|--------------------------|--------------------------|
E|--L--2--2--2--2--2--2--5--|--L--5--5--5--5--5--5--7--|


    E  E  E  E  E  E  E  E     E  E  E  E  E  E  E  E   
G|--------------------------|--------------------------|
D|--------------------------|--------------------------|
A|--------------------------|--------------------------|
E|--L--7--7--7--7--7--7--7--|--7--7--7--7--7--7--7--3--|


    E  E  E  E  E  E  E  E     E  E  E  E  E  E  E  E   
G|--------------------------|--------------------------|
D|--------------------------|--------------------------|
A|--------------------------|--------------------------|
E|--L--3--3--3--3--3--3--3--|--3--3--3--3--3--3--3--0--|


    E  E  E  E  E  E  E  E     E  E  E  E  E  E  E  E   
G|--------------------------|--------------------------|
D|--------------------------|--------------------------|
A|--------------------------|--------------------------|
E|--L--0--0--0--0--0--0--0--|--0--0--0--0--0--0--0--2--|


    E  E  E  E  E  E  E  E     E  E  E  E  E  E  E  E   
G|--------------------------|--------------------------|
D|--------------------------|--------------------------|
A|--------------------------|--------------------------|
E|--L--2--2--2--2--2--2--5--|--L--5--5--5--5--5--5--7--|


    E  E  E  E  E  E  E  E     E  E  E  E  E  E  E  E   
G|--------------------------|--------------------------|
D|--------------------------|--------------------------|
A|--------------------------|--------------------------|
E|--L--7--7--7--7--7--7--7--|--7--7--7--7--7--7--7--3--|


    E  E  E  E  E  E  E  E     E  E  E  E  E  E  E  E   
G|--------------------------|--------------------------|
D|--------------------------|--------------------------|
A|--------------------------|--------------------------|
E|--L--3--3--3--3--3--3--3--|--3--3--3--3--3--3--3--0--|


    E  E  E  E  E  E  E  E     E  E  E  E  E  E  E  E   
G|--------------------------|--------------------------|
D|--------------------------|--------------------------|
A|--------------------------|--------------------------|
E|--L--0--0--0--0--0--0--0--|--0--0--0--0--0--0--0--2--|


    E  E  E  E  E  E  E  E     E  E  E  E  E  E  E  E   
G|--------------------------|--------------------------|
D|--------------------------|--------------------------|
A|--------------------------|--------------------------|
E|--L--2--2--2--2--2--2--5--|--L--5--5--5--5--5--5--7--|


    E  E  E  E  E  E  E  E     E  E  E  E  E  E  E  E   
G|--------------------------|--------------------------|
D|--------------------------|--------------------------|
A|--------------------------|--------------------------|
E|--L--7--7--7--7--7--7--7--|--7--7--7--7--7--7--7--3--|


    E  E  E  E  E  E  E  E     E  E  E  E  E  E  E  E   
G|--------------------------|--------------------------|
D|--------------------------|--------------------------|
A|--------------------------|--------------------------|
E|--L--3--3--3--3--3--3--3--|--3--3--3--3--3--3--3--0--|


    E  E  E  E  E  E  E  E     E  E  E  E  E  E  E  E   
G|--------------------------|--------------------------|
D|--------------------------|--------------------------|
A|--------------------------|--------------------------|
E|--L--0--0--0--0--0--0--0--|--0--0--0--0--0--0--0--2--|


    E  E  E  E  E  E  E  E     E  E  E  E  E  E  E  E   
G|--------------------------|--------------------------|
D|--------------------------|--------------------------|
A|--------------------------|--------------------------|
E|--L--2--2--2--2--2--2--5--|--L--5--5--5--5--5--5--7--|


    E  E  E  E  E  E  E  E     E  E  E  E  E  E  E  E   
G|--------------------------|--------------------------|
D|--------------------------|--------------------------|
A|--------------------------|--------------------------|
E|--L--7--7--7--7--7--7--7--|--7--7--7--7--7--7--7--3--|


    E  E  E  E  E  E  E  E     E  E  E  E  E  E  E  E   
G|--------------------------|--------------------------|
D|--------------------------|--------------------------|
A|--------------------------|--------------------------|
E|--L--3--3--3--3--3--3--3--|--3--3--3--3--3--3--3--0--|


    E  E  E  E  E  E  E  E     E  E  E  E  E  E  E  E   
G|--------------------------|--------------------------|
D|--------------------------|--------------------------|
A|--------------------------|--------------------------|
E|--L--0--0--0--0--0--0--0--|--0--0--0--0--0--0--0--2--|


    E  E  E  E  E  E  E  E     E  E  E  E  E  E  E  E   
G|--------------------------|--------------------------|
D|--------------------------|--------------------------|
A|--------------------------|--------------------------|
E|--L--2--2--2--2--2--2--5--|--L--5--5--5--5--5--5--7--|


    E  E  E  E  E  E  E  E     E  E  E  E  E  E  E  E   
G|--------------------------|--------------------------|
D|--------------------------|--------------------------|
A|--------------------------|--------------------------|
E|--L--7--7--7--7--7--7--7--|--7--7--7--7--7--7--7--3--|


    E  E  E  E  E  E  E  E     E  E  E  E  E  E  E  E   
G|--------------------------|--------------------------|
D|--------------------------|--------------------------|
A|--------------------------|--------------------------|
E|--L--3--3--3--3--3--3--3--|--3--3--3--3--3--3--3--0--|


    E  E  E  E  E  E  E  E     E  E  E  E  E  E  E  E   
G|--------------------------|--------------------------|
D|--------------------------|--------------------------|
A|--------------------------|--------------------------|
E|--L--0--0--0--0--0--0--0--|--0--0--0--0--0--0--0--2--|


    E  E  E  E  E  E  E  E     E  E  E  E  E  E  E  E   
G|--------------------------|--------------------------|
D|--------------------------|--------------------------|
A|--------------------------|--------------------------|
E|--L--2--2--2--2--2--2--5--|--L--5--5--5--5--5--5--7--|


    E  E  E  E  E  E  E  E     E  E  E  E  E  E  E  E   
G|--------------------------|--------------------------|
D|--------------------------|--------------------------|
A|--------------------------|--------------------------|
E|--L--7--7--7--7--7--7--7--|--7--7--7--7--7--7--7--3--|


    E  E  E  E  E  E  E  E     E  E  E  E  E  E  E  E   
G|--------------------------|--------------------------|
D|--------------------------|--------------------------|
A|--------------------------|--------------------------|
E|--L--3--3--3--3--3--3--3--|--3--3--3--3--3--3--3--0--|


    E  E  E  E  E  E  E  E     E  E  E  E  E  E  E  E   
G|--------------------------|--------------------------|
D|--------------------------|--------------------------|
A|--------------------------|--------------------------|
E|--L--0--0--0--0--0--0--0--|--0--0--0--0--0--0--0--2--|


    E  E  E  E  E  E  E  E     E  E  E  E  E  E  E  E   
G|--------------------------|--------------------------|
D|--------------------------|--------------------------|
A|--------------------------|--------------------------|
E|--L--2--2--2--2--2--2--5--|--L--5--5--5--5--5--5--7--|


    E  E  E  E  E  E  E  E     E  E  E  E  E  E  E  E   
G|--------------------------|--------------------------|
D|--------------------------|--------------------------|
A|--------------------------|--------------------------|
E|--L--7--7--7--7--7--7--7--|--7--7--7--7--7--7--7--3--|


    E  E  E  E  E  E  E  E     E  E  E  E  E  E  E  E   
G|--------------------------|--------------------------|
D|--------------------------|--------------------------|
A|--------------------------|--------------------------|
E|--L--3--3--3--3--3--3--3--|--3--3--3--3--3--3--3--0--|


    E  E  E  E  E  E  E  E     E  E  E  E  E  E  E  E   
G|--------------------------|--------------------------|
D|--------------------------|--------------------------|
A|--------------------------|--------------------------|
E|--L--0--0--0--0--0--0--0--|--0--0--0--0--0--0--0--2--|


    E  E  E  E  E  E  E  E     E  E  E  E  E  E  E  E   
G|--------------------------|--------------------------|
D|--------------------------|--------------------------|
A|--------------------------|--------------------------|
E|--L--2--2--2--2--2--2--5--|--L--5--5--5--5--5--5--7--|


    E  E  E  E  E  E  E  E     E  E  E  E  E  E  E  E   
G|--------------------------|--------------------------|
D|--------------------------|--------------------------|
A|--------------------------|--------------------------|
E|--L--7--7--7--7--7--7--7--|--7--7--7--7--7--7--7--3--|


    E  E  E  E  E  E  E  E     E  E  E  E  E  E  E  E   
G|--------------------------|--------------------------|
D|--------------------------|--------------------------|
A|--------------------------|--------------------------|
E|--L--3--3--3--3--3--3--3--|--3--3--3--3--3--3--3--0--|


    E  E  E  E  E  E  E  E     E  E  E  E  E  E  E  E   
G|--------------------------|--------------------------|
D|--------------------------|--------------------------|
A|--------------------------|--------------------------|
E|--L--0--0--0--0--0--0--0--|--0--0--0--0--0--0--0--2--|


    E  E  E  E  E  E  E  E     E  E  E  E  E  E  E  E   
G|--------------------------|--------------------------|
D|--------------------------|--------------------------|
A|--------------------------|-----------------------2--|
E|--L--2--2--2--2--2--2--5--|--L--5--5--5--5--5--L-----|


    E  E  E  E  E  E  E  E     E  E  E  E  E  E  E  E   
G|--------------------------|--------------------------|
D|--------------------------|--------------------------|
A|--L--2--2--2--2--2--2--2--|--2--2--2--2--2--2--2-----|
E|--------------------------|-----------------------3--|


    E  E  E  E  E  E  E  E     E  E  E  E  E  E  E  E   
G|--------------------------|--------------------------|
D|--------------------------|--------------------------|
A|--------------------------|--------------------------|
E|--L--3--3--3--3--3--3--3--|--3--3--3--3--3--3--3--0--|


    E  E  E  E  E  E  E  E     E  E  E  E  E  E  E  E   
G|--------------------------|--------------------------|
D|--------------------------|--------------------------|
A|--------------------------|--------------------------|
E|--L--0--0--0--0--0--0--0--|--0--0--0--0--0--0--0--2--|


    E  E  E  E  E  E  E  E     E  E  E  E  E  E  E  E   
G|--------------------------|--------------------------|
D|--------------------------|--------------------------|
A|--------------------------|-----------------------2--|
E|--L--2--2--2--2--2--2--5--|--L--5--5--5--5--5--L-----|


    E  E  E  E  E  E  E  E     E  E  E  E  E  E  E  E   
G|--------------------------|--------------------------|
D|--------------------------|--------------------------|
A|--L--2--2--2--2--2--2--2--|--2--2--2--2--2--2--2-----|
E|--------------------------|-----------------------3--|


    E  E  E  E  E  E  E  E     E  E  E  E  E  E  E  E   
G|--------------------------|--------------------------|
D|--------------------------|--------------------------|
A|--------------------------|--------------------------|
E|--L--3--3--3--3--3--3--3--|--3--3--3--3--3--3--3--0--|


    E  E  E  E  E  E  E  E     E  E  E  E  E  E  E  E   
G|--------------------------|--------------------------|
D|--------------------------|--------------------------|
A|--------------------------|--------------------------|
E|--L--0--0--0--0--0--0--0--|--0--0--0--0--0--0--0--2--|


    E  E  E  E  E  E  E  E     E  E  E  E  E  E  E  E   
G|--------------------------|--------------------------|
D|--------------------------|--------------------------|
A|--------------------------|-----------------------2--|
E|--L--2--2--2--2--2--2--5--|--L--5--5--5--5--5--L-----|


    E  E  E  E  E  E  E  E     Q    E  E  E  E  E  E     E  E  E  E  E  E  E  E   
G|--------------------------|-------------------------|--------------------------|
D|-----------------0--------|-------------------0-----|-----------------0--------|
A|--L--------0--2-----2--0--|--2----------0--2-----2--|--L--------0--2-----2--0--|
E|-----0--2-----------------|-------0--2--------------|-----0--2-----------------|


    Q    E  E  E  E  E  E     E  E  E  E  E  E  E  E     Q    E  E  E  E  E  E   
G|-------------------------|--------------------------|-------------------------|
D|-------------------0-----|-----------------0--------|-------------------0-----|
A|--2----------0--2-----2--|--L--------0--2-----2--0--|--2----------0--2-----2--|
E|-------0--2--------------|-----0--2-----------------|-------0--2--------------|


    E  E  E  E  E  E  E  E     Q    E  E  E  E  E  E     E  E  E  E  E  E  E  E   
G|--------------------------|-------------------------|--------------------------|
D|-----------------0--------|-------------------0-----|--------------------------|
A|--L--------0--2-----2--0--|--2----------0--2-----2--|--L--2--2--2--2--2--2--2--|
E|-----0--2-----------------|-------0--2--------------|--------------------------|


    E  E  E  E  E  E  E  E     E  E  E  E  E  E  E  E   
G|--------------------------|--------------------------|
D|--------------------------|--------------------------|
A|--2--2--2--2--2--2--2--5--|--L--5--5--5--5--5--5--5--|
E|--------------------------|--------------------------|


    E  E  E  E  E  E  E  E     E  E  E  E  E  E  E  E   
G|--------------------------|--------------------------|
D|--------------------------|--------------------------|
A|--5--5--5--5--5--5--5--7--|--L--7--7--7--7--7--7--7--|
E|--------------------------|--------------------------|


    E  E  E  E  E  E  E  E     E  E  E  E  E  E  E  E   
G|--------------------------|--------------------------|
D|-----------------------5--|--L--5--5--5--5--5--5--7--|
A|--7--7--7--7--7--7--7-----|--------------------------|
E|--------------------------|--------------------------|


    E  E  E  E  E  E  E  E     E  E  E  E  E  E  E  E   
G|--------------------------|--------------------------|
D|--L--7--7--7--7--7--7--9--|--L--9--9--9--9--9--9--9--|
A|--------------------------|--------------------------|
E|--------------------------|--------------------------|


    E  E  E  E  E  E  E  E     E  E  E  E  E  E  E  E   
G|-----------------------7--|--L--7--7--7--7--7--7--7--|
D|--9--9--9--9--9--9--9-----|--------------------------|
A|--------------------------|--------------------------|
E|--------------------------|--------------------------|


    E  E  E  E  E  E  E  E     E  E  E  E  E  E  E  E   
G|--7--7--7--7--7--7--7--9--|--L--9--9--9--9--9--9--9--|
D|--------------------------|--------------------------|
A|--------------------------|--------------------------|
E|--------------------------|--------------------------|


    E  E  E  E  E  E  E   E     E   E   E   E   E   E   E   E   
G|--9--9--9--9--9--9--9--12--|--L--12--12--12--12--12--12--14--|
D|---------------------------|---------------------------------|
A|---------------------------|---------------------------------|
E|---------------------------|---------------------------------|


    E   E   E   E   E   E   E  E     E  E  E  E  E  E  E  E   
G|--L--14--14--14--14--14--14-----|--------------------------|
D|--------------------------------|-----------------0--------|
A|-----------------------------3--|--L--------0--3-----3--0--|
E|--------------------------------|-----0--3-----------------|


    Q    E  E  E  E  E  E     E  E  E  E  E  E  E  E     Q    E  E  E  E  E  E   
G|-------------------------|--------------------------|-------------------------|
D|-------------------0-----|-----------------0--------|-------------------0-----|
A|--3----------0--3-----2--|--L--------0--2-----2--0--|--2----------0--2-----3--|
E|-------0--3--------------|-----0--2-----------------|-------0--2--------------|


    E  E  E  E  E  E  E  E     Q    E  E  E  E  E  E     E  E  E  E  E  E  E  E   
G|--------------------------|-------------------------|--------------------------|
D|-----------------0--------|-------------------0-----|-----------------0--------|
A|--L--------0--3-----3--0--|--3----------0--3-----2--|--L--------0--2-----2--0--|
E|-----0--3-----------------|-------0--3--------------|-----0--2-----------------|


    Q    E  E  E  E  E  E     Q    Q    E  E  E  E     Q    Q    E  E  E  E   
G|-------------------------|------------------------|------------------------|
D|-------------------0-----|------------------------|------------------------|
A|--2----------0--2-----2--|--L---------------------|------------------------|
E|-------0--2--------------|------------x--2-----3--|--L----x----x--5-----0--|


    Q    Q    E  E  E  E     Q    E  Q.     E  E     Q    Q    E  E  E  E   
G|------------------------|-----------------------|------------------------|
D|------------------------|-----------------------|------------------------|
A|------------------------|--------------------2--|--L---------------------|
E|--L----x----x--2-----3--|--L----x--5------x-----|------------x--2-----3--|


    Q    Q    E  E  E  E     E  E  E  E  E  E  E  E   
G|------------------------|--------------------------|
D|---------------------7--|--L-----------5-----------|
A|------------------------|-----8--7--5-----6--5--3--|
E|--L----x----x--5--------|--------------------------|


    S  S  S  S S  S  S  S S  S  S  S E  E     W                  
G|-----------------------------------------|-------------------||
D|-----------------------------------------|-------------------||
A|--7h-8p-7s-5-5h-7p-5s-4-4h-5p-4s-3-3--2--|-------------------||
E|-----------------------------------------|-------------------||



Duration Legend
---------------
W - whole
H - half
Q - quarter
E - 8th
S - 16th
T - 32nd
X - 64th
. - note dotted
|-n-|  - n-tuplets


Tablature Legend
----------------

************************************

| h  Hammer-on
| p  Pull-off
| x  Dead note
| L  tied note

************************************

            
            
Suggest correction
Creating personal tab
Creating personal tab
You can edit any tab online and save it as your Personal.

You can edit, replace or remove any tab part or add personal notes – all changes will be seen only by you.

Personal tabs can be accessed anytime from any device, even offline.
Learn more »
comments
print report bad tab
2 comments total.
0 reply
awesomeperson1 30 Aug 19, 2010 11:56 AM

good tab i think. it would help if u included times or lyrics cuz i keep getting lost. but thanx a million it is great!

0 reply
Zip2461996 10 Oct 06, 2011 02:26 AM

Awesome man, if it was meant to be put instead of the actual bassline it would be the same, if you disagree check here: http://www.youtube.com/watch?v=f4lqNjX0AAw

guest
You may want to rate the tab now too:
select rating
Wanna post a correction for this tab? Suggest correction