Oops, an error
Loading. Please wait.

Fanatisch tab

103 views 6 this week
no commentswrite comment
1 2 3 4 5
3 more votes to show rating
add to favorites
×
Save as Personal and add changes to this tab that will be seen only by you. Learn more ›
×
You can save this tab as Personal to edit and correct it or add notes. All changes will be seen only by you. Learn more »
launch autoscroll
font size
0
reset
how to read this tab
guitar tuner
edit
Autoscroll
slow
fast
+/-
esc
set tempo
stop
Not fully sure about a few of the chords in the main riff and the second chord in the pre-chorus- but
otherwise should be fine to go by. For the intro and chorus, what this means is that play the first section, 
then play 1., then repeat the first section again but play 2. after that.

Enjoy and leave me feedback if you have any- thanks and enjoy...

[Intro] (00:13):                  1. ______________________   2. ___________________________
E||-----------------------------||---------------------------|--------------------------------|
B||-----------------------------||---------------------------|--------------------------------|
G||-----------------------------||---------------------------|--------------------------------|
D||-------7--5---8---7---7-5/7--||------7--5---8---7--10-8\7-|------7--5-----7-7-7--10-10-8-7-|
A||-------5--3---6---5---5-3/5--||------5--3---6---5--8--6\5-|------5--3-----5-5-5--8--8--6-5-|
D||--0-0----0--0---0---0--------||--0-0--0---0---0---0-------|--0-0---0--0-0------------------|
     - -    -  -   -   -            - -  -   -   -   -          - -   -  - -                     
                                 1. ______________________   2. ____________________________
E||---------------------------||----------------------------|--------------------------------|
B||---------------------------||----------------------------|--------------------------------|
G||---------------------------||----------------------------|--------------------------------|
D||------7--5---8---7---7-5/7-||------7--5---8---7---10-8\7-|------7--5-----7/8--7/8--7/8-7--| Let last 
A||------5--3---6---5---5-3/5-||------5--3---6---5---8--6\5-|------5--3-----5/6--5/6--5/6-5--|chord ring
D||--0-0---0--0---0---0-------||--0-0--0---0---0---0--------|--0-0---0--0-0------------------|
     - -   -  -   -   -           - -  -   -   -   -           - -   -  - -       
                                                                                    
[Pre-verse] (00:44):
E|----------|
B|----------|
G|----------|
D|----------|
A|--0-0-0-0-|
D|--0-0-0-0-|

No guitar in verses

[Pre-chorus] (01:09):
E|----------------------|
B|----------------------|
G|----------------------|
D|----------------------|
A|--7----0----3----6----|
D|--7----0----3----6----|

[Chorus] (01:21) Play the whole first half of the intro twice, with the last chord played twice and ringing 
into the pre-verse

[Pre-verse] (01:49):
E|----------|
B|----------|
G|----------|
D|----------|
A|--0-0-0-0-|
D|--0-0-0-0-|

[Pre-chorus] (02:14):
E|----------------------|
B|----------------------|
G|----------------------|
D|----------------------|
A|--7----0----3----6----|
D|--7----0----3----6----|

Repeat chorus in the same way as mentioned before (02:26)

Repeat pre-verse (02:54)

[Bridge] (03:30):
E|---------------|
B|---------------|
G|---------------|
D|---------------|
A|----7---7--7-7-|
D|--7-7-7-7--7-7-|
    -   - 
[Pre-chorus] (03:32):
E|----------------------|
B|----------------------|
G|----------------------|
D|----------------------|
A|--7----0----3----6----|
D|--7----0----3----6----|
  
Repeat chorus in the same way as before TWICE (03:44)


****************************
-: palm-mute
h: hammer-on 
p: pull-off  
tr: tremolo pick  
(h)b: (half) bend  
*: pinch harmonic  
x: muted notes
****************************

            
            
Suggest correction
Creating personal tab
Creating personal tab
You can edit any tab online and save it as your Personal.

You can edit, replace or remove any tab part or add personal notes – all changes will be seen only by you.

Personal tabs can be accessed anytime from any device, even offline.
Learn more »
Give kudos to tab author, rate the tab!
1 2 3 4 5
comments
print report bad tab
guest
You may want to rate the tab now too:
select rating
Wanna post a correction for this tab? Suggest correction