Oops, an error
Loading. Please wait.

Jagdzeit tab

version 1
version 1

Whole song

Interactive

340 views 6 this week
no commentswrite comment
1 2 3 4 5
1 last vote to show rating
add to favorites
×
Save as Personal and add changes to this tab that will be seen only by you. Learn more ›
×
You can save this tab as Personal to edit and correct it or add notes. All changes will be seen only by you. Learn more »
launch autoscroll
font size
0
reset
how to read this tab
guitar tuner
edit
Autoscroll
slow
fast
+/-
esc
set tempo
stop
======================================================================
                         MEGAHERZ - Jagdzeit
======================================================================
Album: Götterdämmerung
Copyright: 2012 - Golden Core
Tabber: Ei5enmann
Tempo = 136

Legend
L - tied note
h - hammer on/pull off
/ - slide
~ - vibrato
PM - palm mute
. - staccato
+ - tapping

Tuning: Dropped B (B F# B E G# C#)

======================================================================
Riff A (Intro, Chorus)
======================================================================
                                                       x3
||--------------------------|--------------------------||
||--------------------------|--------------------------||
||--------------------------|--------------------------||
||--3--------3--------3-----|--3--------3-----5--5--5--||
||--3--------3--------3-----|--3--------3-----5--5--5--||
||--3--0--0--3--0--0--3--0--|--3--0--0--3--0--5--5--5--||
PM     .  .     .  .     .        .  .     .

||--------------------------|--------------------------||
||--------------------------|--------------------------||
||--------------------------|--------------------------||
||--3--------3--------3-----|--3--------3-----5--6--7--||
||--3--------3--------3-----|--3--------3-----5--6--7--||
||--3--0--0--3--0--0--3--0--|--3--0--0--3--0--5--6--7--||
PM     .  .     .  .     .        .  .     .


======================================================================
Riff A.1 (Intro ending)
======================================================================

||-------|--------|--------|-----------------||
||-------|--------|--------|-----------------||
||-------|--------|--------|-----------------||
||--0----|--0L----|--0L----|--0L-------------||
||--0----|--0L----|--0L----|--0L----5--5.-5--||
||--0----|--0L----|--0L----|--0L----5--5.-5--||


======================================================================
Riff A.2 (Verse)
======================================================================

Guitar I

||--------------------------||
||--------------------------||
||--------------------------||
||--3--------3--------3-----||
||--3--------3--------3-----||
||--3--0--0--3--0--0--3--0--||
PM     .  .     .  .     .

Guitar II (2nd verse)

||--------------------------|--------------------------||
||--------------------------|--------------------------||
||--------------------------|--------------------------||
||--3--------3--------3-----|--3--------3-----5--5--5--||
||--3--------3--------3-----|--3--------3-----5--5--5--||
||--3--0--0--3--0--0--3--0--|--3--0--0--3--0--5--5--5--||
PM     .  .     .  .     .        .  .     .

======================================================================
Solo
======================================================================

Guitar I
    +    +    +    +   +   +   +   +      +    +    +    +   +   +   +   +
||-------------------------------------|-------------------------------------|
||--10h3-10h3-10h3-9h3-9h3-9h3-8h3-8h3-|--10h3-10h3-10h3-9h3-9h3-9h3-9h3-8h3-|
||-------------------------------------|-------------------------------------|
||-------------------------------------|-------------------------------------|
||-------------------------------------|-------------------------------------|
||-------------------------------------|-------------------------------------|

    +    +    +    +   +   +   +   +     +   +   +   +   +   +   +   +
|-------------------------------------|----------------------------------||
|--10h3-10h3-10h3-9h3-9h3-9h3-8h3-8h3-|--6h3-6h3-6h3-8h3-8h3-8h3-9h3-9h3-||
|-------------------------------------|----------------------------------||
|-------------------------------------|----------------------------------||
|-------------------------------------|----------------------------------||
|-------------------------------------|----------------------------------||

    +    +    +    +   +   +   +   +      +    +    +    +   +   +   +   +
||-------------------------------------|-------------------------------------|
||--10h3-10h3-10h3-9h3-9h3-9h3-8h3-8h3-|--10h3-10h3-10h3-9h3-9h3-9h3-9h3-8h3-|
||-------------------------------------|-------------------------------------|
||-------------------------------------|-------------------------------------|
||-------------------------------------|-------------------------------------|
||-------------------------------------|-------------------------------------|

    +    +    +    +   +   +   +   +
|-------------------------------------|-------------------------||
|--10h3-10h3-10h3-9h3-9h3-9h3-8h3-8h3-|--6/22----3/22----6/22~--||
|-------------------------------------|-------------------------||
|-------------------------------------|-------------------------||
|-------------------------------------|-------------------------||
|-------------------------------------|-------------------------||

Guitar II

||--------------------------|--------------------------|--------------------------|
||--------------------------|--------------------------|--------------------------|
||--------------------------|--------------------------|--------------------------|
||--7-----3-----5-----6-----|--7-----3-----5-----6-----|--7-----3-----5-----6-----|
||--7-----3-----5-----6-----|--7-----3-----5-----6-----|--7-----3-----5-----6-----|
||--7--0--3--0--5--0--6--0--|--7--0--3--0--5--0--6--0--|--7--0--3--0--5--0--6--0--|
PM     .     .     .     .        .     .     .     .        .     .     .     .

|----------------------------||
|----------------------------||
|----------------------------||
|--5-----5--6----------3--5--||
|--5-----5--6----------3--5--||
|--5--5--5--6--3-3-3-3-3--5--||
PM    .        . . . .

||--------------------------|--------------------------|--------------------------|
||--------------------------|--------------------------|--------------------------|
||--------------------------|--------------------------|--------------------------|
||--7-----3-----5-----6-----|--7-----3-----5-----6-----|--7-----3-----5-----6-----|
||--7-----3-----5-----6-----|--7-----3-----5-----6-----|--7-----3-----5-----6-----|
||--7--0--3--0--5--0--6--0--|--7--0--3--0--5--0--6--0--|--7--0--3--0--5--0--6--0--|
PM     .     .     .     .        .     .     .     .        .     .     .     .

|----------------------------||
|----------------------------||
|----------------------------||
|--6-----5-------------3--5--||
|--6-----5-------------3--5--||
|--6--0--5--0--3-3-3-3-3--5--||
PM    .     .  . . . .


======================================================================
Bridge
======================================================================

||-------|-------|---------------|-------------------||
||-------|-------|---------------|-------------------||
||-------|-------|---------------|-------------------||
||--8----|--5----|--7------------|-------------------||
||--8----|--5----|--7------------|-------------------||
||--8----|--5----|--7----0-0-0-0-|--7---6---5---3~---||
PM                       . . . .

            
            
Suggest correction
Creating personal tab
Creating personal tab
You can edit any tab online and save it as your Personal.

You can edit, replace or remove any tab part or add personal notes – all changes will be seen only by you.

Personal tabs can be accessed anytime from any device, even offline.
Learn more »
Give kudos to tab author, rate the tab!
1 2 3 4 5
comments
print report bad tab
guest
You may want to rate the tab now too:
select rating
Wanna post a correction for this tab? Suggest correction